Calling - Stigmatized Chords & Tabs

 

Stigmatized Chords & Tabs

Calling Chords & Tabs

Version: 7 Type: Tab

Stigmatized Tab

   
#----------------------------------PLEASE NOTE--------------------------------#
#This file is the author's own work and represents their interpretation of the#
#song. You may only use this file for private study, scholarship, or research.#
#-----------------------------------------------------------------------------#

I’ve already submitted my first version of the song but I think there are some 
mistakes that I’ve changed such as the fill on the intro part. I think this one 
is more accurate than my first version. Hope you like it. By the way I would like
to dedicate this song to Melissa Salazar = ) 

-------------------------------------------------------------------------------
Stigmatized – The Calling
-------------------------------------------------------------------------------

Tabbed by: Jonathan A. Carmona
Email:jon2_83@yahoo.com

Tuning: Standard Tuning
        Low to high ( E A D G B E)

Intro:
e|---------------------------------------------------------------------------|
B|---------------------------------------------------------------------------|
G|--4-4--2-2-2---4-4--2-2-2----6-6--7-7-7---6-6--6-6-6-----------------------|
D|--0-0--0-0-0---0-0--0-0-0----0-0--0-0-0---0-0--0-0-0-----------------------|
A|--x-x--x-x-x---x-x--x-x-x----x-x--x-x-x---x-x--x-x-x-----------------------|
E|--3-3--3-3-3---3-3--3-3-3----5-5--7-7-7---5-5--7-7-7-----------------------|

Fill:
e|-10-9----10-9--------------------------------------------------------------|
B|------10------10---12-10----10------10----------10-------------------------|
G|--------------------------9----99h11--11-999h11----99h11~------------------|
D|---------------------------------------------------------------------------|
A|---------------------------------------------------------------------------|
E|---------------------------------------------------------------------------|

Verse 1: (2x)
e|---------------------------------------------------------------------------|
B|---------------------------------------------------------------------------|
G|--4-4--2-2-2---4-4--2-2-2----6-6--7-7-7---6-6--6-6-6-----------------------|
D|--0-0--0-0-0---0-0--0-0-0----0-0--0-0-0---0-0--0-0-0-----------------------|
A|--x-x--x-x-x---x-x--x-x-x----x-x--x-x-x---x-x--x-x-x-----------------------|
E|--3-3--3-3-3---3-3--3-3-3----5-5--7-7-7---5-5--7-7-7-----------------------|

Chorus: (2x)

Fig. A
e|-------------------------------------------------------------------------|
B|--10-10-10-10-10-10---10-10-10-10-10-10----------------------------------|
G|--12-12-12-12-12-12---11-11-11-11-11-11----------------------------------|
D|---0--0--0--0--0--0----0--0--0--0--0--0----------------------------------|
A|---x--x--x--x--x--x----x--x--x--x--x—-x----------------------------------|
E|--12-12-12-12-12-12---10-10-10-10-10-10----------------------------------|

e|---------------------------------------------------------------------------|
B|--10-10-10-10-10-10--------------------------------------------------------|
G|---9--9--9--9--9--9---7--7--7--7--7--7----6--------------------------------|
D|---0--0--0--0--0--0---0--0--0--0--0--0----0--------------------------------|
A|---x--x--x--x--x--x---x--x--x--x--x—-x----x--------------------------------|
E|---9--9--9--9--9--9---7--7--7--7--7--7----5--------------------------------|

Fig. B
e|---------------------------------------------------------------------------|
B|---------------------------------------------------------------------------|
G|--4-4--2-2-2---4-4--2-2-2----6-6--7-7-7---6-6--6-6-6-----------------------|
D|--0-0--0-0-0---0-0--0-0-0----0-0--0-0-0---0-0--0-0-0-----------------------|
A|--x-x--x-x-x---x-x--x-x-x----x-x--x-x-x---x-x--x-x-x-----------------------|
E|--3-3--3-3-3---3-3--3-3-3----5-5--7-7-7---5-5--7-7-7-----------------------|

Fill:
e|-10-9----10-9--------------------------------------------------------------|
B|------10------10---12-10----10------10----------10-------------------------|
G|--------------------------9----99h11--11-999h11----99h11~------------------|
D|---------------------------------------------------------------------------|
A|---------------------------------------------------------------------------|
E|---------------------------------------------------------------------------|

(Repeat Verse)
(Repeat Chorus)

Then:
e|---------------------------------------------------------------------------|
B|---------------------------------------------------------------------------|
G|--4-4--2-2-2---4-4--2-2-2----6-6-6-6-6-6-6-6-------------------------------|
D|--0-0--0-0-0---0-0--0-0-0----0-0-0-0-0-0-0-0-------------------------------|
A|--x-x--x-x-x---x-x--x-x-x----x-x-x-x-x-x-x-x-------------------------------|
E|--3-3--3-3-3---3-3--3-3-3----5-5-5-5-5-5-5-5-------------------------------|

e|---------------------------------------------------------------------------|
B|---------------------------------------------------------------------------|
G|--4-4--2-2-2---4-4--2-2-2----6-6-6-6--7-7-7-7------------------------------|
D|--0-0--0-0-0---0-0--0-0-0----0-0-0-0--0-0-0-0------------------------------|
A|--x-x--x-x-x---x-x--x-x-x----x-x-x-x--x-x-x-x------------------------------|
E|--3-3--3-3-3---3-3--3-3-3----5-5-5-5--7-7-7-7------------------------------|
[ Tab from: http://www.guitartabs.cc/tabs/c/calling/stigmatized_tab_ver_7.html ]
e|---------------------------------------------------------------------------|
B|---------------------------------------------------------------------------|
G|--4-4--2-2-2-2--6-~~-------------------------------------------------------|
D|--0-0--0-0-0-0--0-~~-------------------------------------------------------|
A|--x-x--x-x-x-x--x-~~-------------------------------------------------------|
E|--3-3--3-3-3-3--5-~~-------------------------------------------------------|

Breakdown:
e|---------------------------------------------------------------------------|
B|---------------------------------------------------------------------------|
G|--2-2--4-4--6-6--7-7-6-----2-2-2--4--6-6--7-6------------------------------|
D|--0-0--0-0--0-0--0-0-0-----0-0-0--0--0-0--0-0------------------------------|
A|--x-x--x-x--x-x--x-x-x-----x-x-x--x--x-x--x-x------------------------------|
E|--2-2--3-3--5-5--7-7-5-----2-2-2--3--5-5--7-6------------------------------|

(Repeat Chorus Fig. A)
(Repeat Breakdown)

With little fill (listen for the timing)
e|---------------------------------------------------------------------------|
B|--15-14-12-----15-14-12----------------------------------------------------|
G|-----------14-----------14-------------------------------------------------|
D|---------------------------------------------------------------------------|
A|---------------------------------------------------------------------------|
E|---------------------------------------------------------------------------|

Outro:

e|---------------------------------------------------------------------------|
B|---------------------------------------------------------------------------|
G|--4-4--2-2-2---4-4--2-2-2----6-6-6-6-6-6-6-6-------------------------------|
D|--0-0--0-0-0---0-0--0-0-0----0-0-0-0-0-0-0-0-------------------------------|
A|--x-x--x-x-x---x-x--x-x-x----x-x-x-x-x-x-x-x-------------------------------|
E|--3-3--3-3-3---3-3--3-3-3----5-5-5-5-5-5-5-5-------------------------------|

e|---------------------------------------------------------------------------|
B|---------------------------------------------------------------------------|
G|--4-4--2-2-2---4-4--2-2-2----6-6-6-6--7-7-7-7------------------------------|
D|--0-0--0-0-0---0-0--0-0-0----0-0-0-0--0-0-0-0------------------------------|
A|--x-x--x-x-x---x-x--x-x-x----x-x-x-x--x-x-x-x------------------------------|
E|--3-3--3-3-3---3-3--3-3-3----5-5-5-5--7-7-7-7------------------------------|

e|---------------------------------------------------------------------------|
B|--------------------------------------7-7-7-7-7----------------------------|
G|--4-4--2-2-2---4-4--2-2-2----6-6-6-6--7-7-7-7-7----------------------------|
D|--0-0--0-0-0---0-0--0-0-0----0-0-0-0--0-0-0-0-0----------------------------|
A|--x-x--x-x-x---x-x--x-x-x----x-x-x-x--x-x-x-x-x----------------------------|
E|--3-3--3-3-3---3-3--3-3-3----5-5-5-5--7-7-7-7-7----------------------------|


e|---------------------------------------------------------------------------|
B|------------------------------------------------10-10-10-10----------------|
G|--4-4--2-2-2---4-4--2-2-2----6-6-6-6--7-7-7/9-9-9—-9—-9--9-----------------|
D|--0-0--0-0-0---0-0--0-0-0----0-0-0-0--0-0-0/0-0-0—-0—-0--0-----------------|
A|--x-x--x-x-x---x-x--x-x-x----x-x-x-x--x-x-x/x-x-x—-x—-x--x-----------------|
E|--3-3--3-3-3---3-3--3-3-3----5-5-5-5--7-7-7/9-9-9—-9—-9--9-----------------|
                                       {____________________}
                                        strum this very fast
End:
e|---------------------------------------------------------------------------|
B|----0--3-------------------------------------------------------------------|
G|----0--2---7~~~------------------------------------------------------------|
D|-2--2--0---0~~~------------------------------------------------------------|
A|-2--x--x---x~~~------------------------------------------------------------|
E|-0---------7~~~------------------------------------------------------------|

Legend:

| /  slide up
| \  slide down
| h  hammer-on
| p  pull-off
| ~  let ring
| +  harmonic
| x  Mute note

===============================================================================
Lyrics

If I give up on you I give up on me
If we fight what's true, will we ever be
Even God himself and the faith I knew
Shouldn't hold me back, shouldn't keep me from you

Tease me, by holding out your hand
Then leave me, or take me as i am
And live our lives, stigmatized

I can feel the blood rushing though my veins
When i hear your voice, driving me insane
Hour after hour day after day
Every lonely night that i sit and pray

Tease me, by holding out your hand
Then leave me, or take me as I am
And live our lives, stigmatized

We live our lives on different sides,
But we keep together you and I
Just live our lives, stigmatized

We'll live our lives, We'll take the punches everyday
We'll live our lives I know we're gonna find our way

I believe in you
Even if no one understands
I believe in you, and i don't really give a damn
If we're stigmatized
We live our lives on different sides
But we keep together you and I
We live our lives on different sides

We gotta live our lives
Gotta live our lives
Were gonna live our lives
We're gonna live our lives, Gonna live our lives,
Stigmatized