Calling - Stigmatized Chords & Tabs

 

Stigmatized Chords & Tabs

Calling Chords & Tabs

Version: 6 Type: Tab 0 ratings
1 star 2 stars 3 stars 4 stars 5 stars
comments

Stigmatized Tab

Title: Stigmatized
Artist: The Calling
tabbed by: Lendon Wall



Intro/Verse:
Guitar 1
E---x--x----x--x--x-------x--x----x--x--x-------
B---x--x----x--x--x-------x--x----x--x--x-------
G---4--4----2--2--2-------6--6----7--7--7-------
D---x--x----x--x--x- x2 --x--x----x--x--x- x2 --
A---0--0----0--0--0-------0--0----0--0--0-------
E---3--3----3--3--3-------5--5----7--7--7-------

Guitar 2
E------------------------------------------------
B------------------------------------------------
G---12--11--7-------12--11--7----------9--7------
D-----------------------------------7------------
A------------------------------------------------
E------------------------------------------------
   "Oo, oo, oo......................oo,oo,oo.."


Chorus:

E---x--x----x--x--x-----x--x----x--x--x----
B---x--x----x--x--x-----x--x----x--x--x----
G---12-12---12-12-12----11-11---11-11-11---
D---0--0----0--0--0-----0--0----0--0--0----
A---x--x----x--x--x-----x--x----x--x--x----
E---12-12---12-12-12----10-10---10-10-10---
   "Tease...............me............by
[ Tab from: http://www.guitartabs.cc/tabs/c/calling/stigmatized_tab_ver_6.html ]
E---x--x----x--x--x-----x--x----x--x--x----
B---x--x----x--x--x-----x--x----x--x--x----
G---9--9----9--9--9-----7--7----7--7--7----
D---0--0----0--0--0-----0--0----0--0--0----
A---x--x----x--x--x-----x--x----x--x--x----
E---9--9----9--9--9-----7--7----7--7--7----
    holdin' out your    hand..........or

E---x--x----x--x--x-----x--x----x--x--x----
B---x--x----x--x--x-----x--x----x--x--x----
G---12-12---12-12-12----11-11---11-11-11---
D---0--0----0--0--0-----0--0----0--0--0----
A---x--x----x--x--x-----x--x----x--x--x----
E---12-12---12-12-12----10-10---10-10-10---
   Leave...............me............or

E---x--x----x--x--x-----x--x----x--x--x----
B---x--x----x--x--x-----x--x----x--x--x----
G---9--9----9--9--9-----7--7----7--7--7----
D---0--0----0--0--0-----0--0----0--0--0----
A---x--x----x--x--x-----x--x----x--x--x----
E---9--9----9--9--9-----7--7----7--7--7----
    take me as I        am..........and

E---x--x----x--x--x-----x--x----x--x--x----
B---x--x----x--x--x-----x--x----x--x--x----
G---12-12---12-12-12----11-11---11-11-11---
D---0--0----0--0--0-----0--0----0--0--0----
A---x--x----x--x--x-----x--x----x--x--x----
E---12-12---12-12-12----10-10---10-10-10---
    live our lives......................

E---x--x----x--x--x-----x--x----x--x--x----
B---x--x----x--x--x-----x--x----x--x--x----
G---9--9----9--9--9-----7--7----7--7--7----
D---0--0----0--0--0-----0--0----0--0--0----
A---x--x----x--x--x-----x--x----x--x--x----
E---9--9----9--9--9-----7--7----7--7--7----
    Stigmatized........................"
Comments