Calling - Stigmatized Chords & Tabs

 

Stigmatized Chords & Tabs

Calling Chords & Tabs

Version: 1 Type: Tab 0 ratings
1 star 2 stars 3 stars 4 stars 5 stars
comments

Stigmatized Tab

   
Title: Stigmatized
Artist: The Calling
Album: Camino Palmero
Transcribed by: Suhaida 
[ Tab from: http://www.guitartabs.cc/tabs/c/calling/stigmatized_tab.html ]
Say... Here's a SWEET love song from an awsome band. It's an easy song to play and a good one to sing to your girlfriend (hehehe...). So have fun and here are the tabs:
 
.:Intro:.
e---------------3-----3------
b---1--1--1--1--0--1--0--1---
g---2--0--2--0--0--0--0--0---
D---3--3--3--3--0--2--0--2---
A---3--3--3--3--2--3--2--3---
E---0--0--0--0--3--0--3--0---
 
Verse 1: (Same as Intro)
 
.:Chorus:.
 
^ e---0---0---3--------
  b---1---1---0--------
  g---0---0---0--------
  D---3---2---0--------
  A---3---3---2--------
  E-----------3--------
 
     * [Strum each chord once]
           C  Am7 Am
	e--0--0---0---
        b--1--1---1---
        g--0--0---2---
        D--2--2---2---
        A--3--0---0---
        E-------------
 
           Repeat ^, C, Am7, Am
 
.:Verse 2:. (Same as Intro)
 
.:Chorus:.
 
.:Verse 3:. (Same as Chorus)

there you go. all comments to me (crazed@most-wanted.com). CHIAO ;) - Suhaida
Comments