Calling - Stigmatized Chords & Tabs

 

Stigmatized Chords & Tabs

Calling Chords & Tabs

Version: 1 Type: Bass Tab

Stigmatized Bass Tab

Riff One: (I can feel the blood...)

----------------------------------------|
----------------------------------------|
----------------------------------------|
-5----3-----5---4-3-1--3-4-5--4-2-3-4---|

Riff Two: (Tease Me...)

----------------------------------------------|
----------------------------------------------|
----------------------------------------------|
-5----2---4----1---3--2---1-2-3-4-3-3-4-5-6-5-|

Riff Three: (And Live our Lives Stigmatized)
[ Tab from: http://www.guitartabs.cc/tabs/c/calling/stigmatized_btab.html ]
-------------------------------------------|
-------------------------------------------|
-------------------------------------------|
-9---7---8---6--5-6-7-8-9--8-7-6-5-6-7-8-9-| x2

Riff Four( DU-Du-DU-Du)

----------------------------------------|
----------------------------------------|
-2-3-5-6--2-3-5-6-5----3/SLIDE/8--------|
----------------------------------------| x 4 i believe but only do the
					 slide once.

Riff Five:

----------------------------------------|
----------------------------------------|
----------------------------------------|
-5----3-----5---4-3-1--3-4-5--4-2-3-4---| PLAY FAST and repeat until end


tab by : jestoni