Calling - One By One Chords & Tabs

 

One By One Chords & Tabs

Calling Chords & Tabs

Version: 2 Type: Tab

One By One Tab

 here is the intro to One By One, i'm not 100% certain it is fully accurate but
its as close as i could come.
e|---------------------------------|
B|-------12-------12------12-------|
G|-11h12----12-11----11-9----9-11--|
D|---------------------------------|
A|---------------------------------|
E|---------------------------------|
[ Tab from: http://www.guitartabs.cc/tabs/c/calling/one_by_one_tab_ver_2.html ]
e|---------------------------------------|
B|-------12-------12------12-------------|
G|-11h12----12-11----11-9----9-11--77h9--|
D|---------------------------------------|
A|---------------------------------------|
E|---------------------------------------|

e|---------------------------------|
B|-------12-------12------12-------|
G|-11h12----12-11----11-9----9-11--|
D|---------------------------------|
A|---------------------------------|
E|---------------------------------|

e|--------------------------------------|
B|-------12-------12------12------------|
G|-11h12----12-11----11-9----9-11--7h9--|
D|--------------------------------------|
A|--------------------------------------|
E|--------------------------------------|