Calling - One By One Chords & Tabs

 

One By One Chords & Tabs

Calling Chords & Tabs

Version: 1 Type: Tab 0 ratings
1 star 2 stars 3 stars 4 stars 5 stars
comments

One By One Tab

-----7-----------7----------7----------------|
-7h8---8----5h7----7----3h5---5--------------|
---------------------------------------------| x3
---------------------------------------------|
---------------------------------------------|
---------------------------------------------|

-----7-----------7---------------------------|
-7h8---8----5h7----7----3h5~~ ---------------|
---------------------------------------------| x1
---------------------------------------------|
---------------------------------------------|
---------------------------------------------|
[ Tab from: http://www.guitartabs.cc/tabs/c/calling/one_by_one_tab.html ]
(dist)
---------------------------------------------|
-8-8-8--7-7-7--5-5-5~--5-5-------------------|
-9-9-9--7-7-7--5-5-5~--5-5-------------------| x2
-9-9-9--7-7-7--5-5-5~--5-5-------------------|
---------------------------------------------|
---------------------------------------------|

---------------------------------------------|
----8-----8---------7-----------5------------|
-9-----9-----9--7-7---7-7---5-------5~\7\9---|
---------------------------------------------|
---------------------------------------------|
---------------------------------------------|

---------------------------------------------|
----8-----8---------7------------------------|
-9-----9-----9--7-7---7-7---5~~--------------|
---------------------------------------------|
---------------------------------------------|
---------------------------------------------|
Comments