Calling - If Only Chords & Tabs

 

If Only Chords & Tabs

Calling Chords & Tabs

Version: 1 Type: Tab 0 ratings
1 star 2 stars 3 stars 4 stars 5 stars
comments

If Only Tab

   
Song: If Only (solo)
Artist: the Calling
Album: Two

I saw that the solo to this song has not been tabbed out by anyne EVER
so I decided to give it a try
Tuning: down half a step (Eb Ab Db Gb Bb Eb)

eb-----2/3--3---3--2--2----------------------------------------------|
Bb-------------------------------0-0-0---0---------------------------|
Gb----------------------------2---------------2--2-------------------|
Db-------------------------------------------------------------------|
Ab-------------------------------------------------------------------|
Eb-------------------------------------------------------------------|
[ Tab from: http://www.guitartabs.cc/tabs/c/calling/if_only_tab.html ]
eb-------------------------0-----—2/5-5-5--5-5/12-12---12-11-11------|
Bb-----0--2--3-2-3-2-3-2-3---3---------------------------------------|
Gb---2---------------------------------------------------------------|
Db-------------------------------------------------------------------|
Ab-------------------------------------------------------------------|
Eb-------------------------------------------------------------------|

eb—--11/14-14--14-12-12—12/10-10—-10/9-9-9---3-5-5/7--5-5/3-3-3------|
Bb-------------------------------------------------------------------|
Gb-------------------------------------------------------------------|
Db-------------------------------------------------------------------|
Ab-------------------------------------------------------------------|
Eb-------------------------------------------------------------------|

Here it is, relatively simple to play and sounds AMAZING finger-picked on
acoustic
Enjoy!
Any comments, suggestions, criticisms, email me at n0b0dyelse@hotmail.com
Comments