Calling - For You Chords & Tabs

 

For You Chords & Tabs

Calling Chords & Tabs

Version: 1 Type: Tab 0 ratings
1 star 2 stars 3 stars 4 stars 5 stars
comments

For You Tab

   
Artist: The Calling
Song: For You
Album: DareDevil Soundtrack


/- slide up
\- slide down

Tunning: Drop-D half step lowered

eb|
Bb|
Gb|
Db|
Ab|
Db|

Intro:

I Really don't know what to call these chords or if 
they are really played this way, i remember playing
something like this in everlong by the foo fighters
and it doesn't sound so bad....

    D? E? F?  G?  G#?
eb|----------------------------------------|
Bb|----------------------------------------|
Gb|--7--9--11--13--14----------------------|
Db|--0--0--0---0---0-----------------------|
Ab|--5--7--9---11--12----------------------|
Db|----------------------------------------|

Verse:
[ Tab from: http://www.guitartabs.cc/tabs/c/calling/for_you_tab.html ]
    F#5  E5  B5  D5        E5 
eb|----------------------------------------| 
Bb|----------------------------------------| 
Gb|----------4-------7----------9----------|   3x like this 
Db|--4---2---4-----7---7/-----9---9\-------|
Ab|--4---2---2--/5----------7--------------|
Db|--4---2---------------------------------|
I am a vision, i am justice..........


    F#5  E5  B5  D5  E5 
eb|-----------------------------| 
Bb|-----------------------------| 
Gb|----------4---7---9----------| 4th time
Db|--4---2---4---7---9----------|
Ab|--4---2---2---5---7----------|
Db|--4---2----------------------|

...the man who saves the day_____

Chorus:
      A5  E5  D5
eb|----------------------------------|
Bb|----------------------------------|
Gb|-------9---7--9--11--13--14-------|
Db|---7---9---0--0--0---0---0--------|
Ab|---7---7---5--7--9---11--12-------|
Db|---7------------------------------|


I can't figure out the bridge that is missing
in the middle of the 4th and last chorus (i think is the 4th)
if any one figures it out tell me or make a tab


Corrections, Sugestions, Critics, whatever

night-crawler@netc.pt

lisbon, portugal
Comments