Calling - Final Answer Chords & Tabs

 

Final Answer Chords & Tabs

Calling Chords & Tabs

Version: 1 Type: Tab 0 ratings
1 star 2 stars 3 stars 4 stars 5 stars
comments

Final Answer Tab

   
Final Answer
from Camino Palmero

standard tunning

intro: (play 4 times)
E -10-10-10-10-10-10-10-10-|
B -10-10-10-10-10-10-10-10-|
G -12-12-12-12-12-12-12-12-|
D -------------------------|
A -------------------------|
E -10-10-10-10-10-10-10-10-|

verse: (play 3 times)

I want love, to carry me through...

-10-10-10-10-10-10-10-10---|
-10-10-10-10-10-10-10-10---|
-12-12-12-12-12-12-12-12---|  x4
---------------------------|
---------------------------|
-10-10-10-10-10-10-10-10---|

...all the...
-10-10-10-10-10-10-10-10-----|
-10-10-10-10-10-10-10-10-----|
-11-11-11-11-11-11-11-11-----|
------------------------ x 1-|
-----------------------------|
-10-10-10-10-10-10-10-10-----|
...moments...
-7-7-7-7-7-7-7-7--|
-8-8-8-8-8-8-8-8--|
-9-9-9-9-9-9-9-9--|
------------------| x1
------------------|
------------------|
... I'd kindly undo...
-10-10-10-10-10-10-10-10--|
-10-10-10-10-10-10-10-10--|
-12-12-12-12-12-12-12-12--|
--------------------------| x2
--------------------------|
-10-10-10-10-10-10-10-10--|

Locked away, so I can feel safe
Now that I'm down on my knees, begging for change

Look down at the water, before I jump in
To find I was sinking fast, in all the might have been


CHORUS:

chords: G(320033),X(x20230),Em(022033),C(032010),Am(002210)

[G]What I need[X] now is an [Em]honest answer, to make[C] things better
[G]You can see[X] now my [Em]hands are tied, and I[C] surrender
[G]So I'll wait here[x] for your [Em]final answer, your[C] final answer


VERSE#2:
[ Tab from: http://www.guitartabs.cc/tabs/c/calling/final_answer_tab.html ]
Is there love without hate
Is there pleasure without pain?
I have seen all my mistakes
I cast you out, but now, I want you back
So light me again, cause my heart is turning black

CHORUS#2:

[G]What I need[X] now is an [Em]honest answer, to make[C] things better
[G]You can see[X] now my [Em]hands are tied, and I[C] surrender
[G]So I'll wait here[x] for your [Em]final answer, your[C] final answer

AND THEN:

[Am]Remember the night[X] you wore[G] that dress,[Em] yeah
[Am]It flowed through out lips
[X]Drink after drink,[G] and kiss [Em]after kiss
[Am]I'm still holding on,[X] day after[Em] day
[C]Don't run away


I want love to carry me through...
-10-10-10-10-10-10-10-10---|
-10-10-10-10-10-10-10-10---|
-12-12-12-12-12-12-12-12---|  x4
---------------------------|
---------------------------|
-10-10-10-10-10-10-10-10---|

...Can you...
-10-10-10-10-10-10-10-10-----|
-10-10-10-10-10-10-10-10-----|
-11-11-11-11-11-11-11-11-----|
------------------------ x 1-|
-----------------------------|
-10-10-10-10-10-10-10-10-----|
... tell me...
-7-7-7-7-7-7-7-7--|
-8-8-8-8-8-8-8-8--|
-9-9-9-9-9-9-9-9--|
------------------| x1
------------------|
------------------|
...what I'm supposed to do...
-10-10-10-10-10-10-10-10--|
-10-10-10-10-10-10-10-10--|
-12-12-12-12-12-12-12-12--|
--------------------------| x2
--------------------------|
-10-10-10-10-10-10-10-10--|

CHORUS#3:

[G]What I need[X] now is an [Em]honest answer, to make[C] things better
[G]You can see[X] now my [Em]hands are tied, and I[C] surrender
[G]So I'll wait here[x] for your [Em]final answer, your[C] final answer


That's it ;] I hope you like it.
Comments