Calling - Could It Be Any Harder Chords & Tabs

 

Could It Be Any Harder Chords & Tabs

Calling Chords & Tabs

Version: 2 Type: Tab 0 ratings
1 star 2 stars 3 stars 4 stars 5 stars
comments

Could It Be Any Harder Tab

   
Could It Be Any Harder
tabbed by:Gino(gino_mj@yahoo.com)

Standard Tuning : EADGBe

Intro/Verse/(Chorus = Fsus2add7 G6 C Am7)
|-----------0---------------------0-----------0---------------------
|--------1---------------------3-----------1---------------0--------
|-------------------------------------------------------2-----------
|----3------------------3/5--------------------------2--------------
|---------------------------------------3---------------------------
|-------------------------------------------------------------------

*Play after "if I only had one more day..."                                       
|------------0--------------------0---------------------------------
|-------------------------------------------------------------------
|--------2------------------2---------------------------------------
|-------------------------------------------------------------------
|----0----------------0---------------------------------------------
|-------------------------------------------------------------------
[ Tab from: http://www.guitartabs.cc/tabs/c/calling/could_it_be_any_harder_tab_ver_2.html ]
*Solo 
|-------------------------------------------------------------------
|--------------5--6--5----------------------------------------------
|------5---7----------------5--7-------5----4---5-------------------
|-------------------------------------------------------------------
|-------------------------------------------------------------------
|-------------------------------------------------------------------

------------------------------------------------7-8-7-------------
---------3/5---------------------------------8---------------------
----------------5----7----4---------------7------------------------
-------------------------------7-----5-----------------------------
-------------------------------------------------------------------
-------------------------------------------------------------------

                               
-------------------------------------------------------------------
-------6/8---6--5--------------------------------------------------
---------------------7--7---5--------------------------------------
-------------------------------------------------------------------
-------------------------------------------------------------------
-------------------------------------------------------------------
Comments