Calling - Adrienne Chords & Tabs

 

Adrienne Chords & Tabs

Calling Chords & Tabs

Version: 2 Type: Bass Tab

Adrienne Bass Tab

adrienne
the calling


Riff One: (Musical Intro)

-------------------------------------------------|
-------------------------------------------------|
-------------------------------------------------|
-1/Slide/5-5-5-5-3-3-3-3-1-1-1-1-4-4-4-4-2-2-2-2-|

Riff Two: (While alex is singing)

----------------------------------------------|
----------------------------------------------|
----------------------------------------------|
-5--5---3---3----1----1----4----4----2-----2--| x2 or Until Chorus

Riff Three: (Chorus)
[ Tab from: http://www.guitartabs.cc/tabs/c/calling/adrienne_btab_ver_2.html ]
----------------------------------------------|
----------------------------------------------|
----------------------------------------------|
-5-5-5-5--1-1-1-1--3-3-3-3--2-2-2-2-5-4-3-2-1-|

Riff Four: (While Alex is singing)

----------------------------------------------|
----------------------------------------------|
----------------------------------------------|
-5--5---3---3----1----1----4----4----2-----2--| x2 or Until Chorus

Riff Five: (Chorus)

----------------------------------------------|
----------------------------------------------|
----------------------------------------------|
-5-5-5-5--1-1-1-1--3-3-3-3--2-2-2-2-5-4-3-2-1-|

thats it........enjoy.
audioslove_19