Calling - Adrienne Chords & Tabs

 

Adrienne Chords & Tabs

Calling Chords & Tabs

Version: 1 Type: Bass Tab 0 ratings
1 star 2 stars 3 stars 4 stars 5 stars
comments

Adrienne Bass Tab

Artist: The Calling          		Title: adrienne
Album: Camino Palmero
made by:  Jaap Rigtering   		mail me @: gare_zooi@hotmail.com

Bass guitar
Intro:
G-------------------------
D4------------4-----------
A---3------------3--------
E------6--7-6-------6--7-6

Verse
G------------------------------------------------
D4-4---------4-4---------4-4---------4-4---------
A---3-3---------3-3---------3-3---------3-3------
E------6-67-6------6-67-6------6-67-6------6-67-6
"I've been thinking about you...

Bridge
G-------------------------------
D-------------------------------
A-------------------------------
E4466779764-4667-79--9-99999
"what I needed now...

Chorus
G----------------------------------------------------------------------
D4-4-----------4-4-----------4-4-----------4-4-----------4-4-----------
A---333-----------333-----------333-----------333-----------333--------
E------6-6-7767------6-677767------6-6-7767------6-677767------6-6-7767
"AA-Adrienne...

Verse
G--------------------------------------------------
D--4-4---------4-4---------4-4---------4-4---------
A-----3-3---------3-3---------3-3---------3-3------
E--------6-67-6------6-67-6------6-67-6------6-67-6
"spend my money... 

Bridge
G-------------------------------
D-------------------------------
A-------------------------------
E4466779764-4667-79--9-99999
"Now Take these words...
[ Tab from: http://www.guitartabs.cc/tabs/c/calling/adrienne_btab.html ]
2nd Chorus
G--------------------------------------------------------
D4-4-----------4-4-----------4-4-----------4-4-----------
A---333-----------333-----------333-----------333--------
E------6-6-7767------6-677767------6-6-7767------6-677767 go to bridge
"AA-Adrienne...

 

2nd Chorus - diffrent
G--------------------------------------------------------
D4-4-----------4-4--6--8---984-4-----------4-4--6--8---98 go to bridge
A---333-----------33------------333-----------33---------
E------6-6-7767-------6--77--------6-677767-------6--77--
"AA-Adrienne...


Bridge after 2nd chorus
G------------------------------------------------
D------------------------4-4---------4-4---------
A---------------------------3-3---------3-3------
E4466779764-4667-79--------6-67-6------6-67-6 go to last bridge
"...me ooohhoo...

Last Bridge
G-------------------------------
D-------------------------------
A-------------------------------
E4466779764-4667-79--9-99999

Last Chorus 
G----------------------------------------------------------------------
D4-4-----------4-4--6--8---984-4-----------4-4--6--8---984-4-----------
A---333-----------33------------333-----------33------------333--------
E------6-6-7767-------6--77--------6-677767-------6--77--------6-6-7767
"AA-Adrienne...

>>>>>>>Keep repeating till the end !!! <<<<<<<


This is my first guitar tab !!
I'm sure all the tones are ok, but please don't kill me it I've made some mistakes
in the rhythm, I didn't know how else to write 'em down! :D
\/ pease \/  
  BASS RHYTHEM IN MY BONES !!!
Comments