Callenish Circle - For What Its Good For Chords & Tabs

 

For What Its Good For Chords & Tabs

Callenish Circle Chords & Tabs

Version: 1 Type: Tab 0 ratings
1 star 2 stars 3 stars 4 stars 5 stars
comments

For What Its Good For Tab

   
Callenish Circle
..for what's it good for?
Tabbed by Michiel de Boorder june 19th, 2002

Notes:
I didn't bother to tab out the solo, maybe in the future. 
Timing is pretty much correct.
Listen to the CD for song structure
Any questions or comments: michieldeboorder@dolfijn.nl

Tuning C F A# D# G C

Legend: . = palm mute
        h = hammer-on
        p = pull-off

Riff A
Gtr 1
|-------------------------------------------------------|
|-------------------------------------------------------|
|-------------------------------------------------------|
|-------------------------------------------------------|
|-7-----7-----7---9---10--5-----5-----5---7---8---------|
|---0-0---0-0---0---0---0---0-0---0-0---0---0---0-------|
    . .   . .   .   .   .   . .   . .   .   .   .

Gtr 2 
|-------------------------------------------------------|
|-------------------------------------------------------|
|-------------------------------------------------------|
|-------------------------7-----7-----7-----------------|
|-7-----7-----7---9---10------------------10--9---------|
|---0-0---0-0---0---0---0---0-0---0-0---0---0---0-------|
    . .   . .   .   .   .   . .   . .   .   .   .


Riff A.2 played while gtr 1 plays riff A |1st ending|2nd ending|
|----------------------------------------|----------|----------|
|----------------------------------------|----------|----------|
|----------------------------------------|----------|----------|
|-5-----5-----5---7---9---4-----4-----4--|-5---7----|-2---0----|
|----------------------------------------|----------|----------|
|---0-0---0-0---0---0---0---0-0---0-0---0|---0---0--|---0---0--|
    . .   . .   .   .   .   . .   . .   .    .   .      .   .

Riff B, both guitars
|-----------------------------------------------------------------|
|-----------------------------------------------------------------|
|-----------------------------------------------------------------|
|-----------------------------------------------------------------|
|-7-------7---5-------5---7---8---2-------2---3-------3---5-------|
|---5-5-5---5---3-3-3---3---5---6---0-0-0---0---1-1-1---1---3-3-3-|
    . . .   .   . . .   .   .   .   . . .   .   . . .   .   . . .
[ Tab from: http://www.guitartabs.cc/tabs/c/callenish_circle/for_what_its_good_for_tab.html ]
Riff B, continued
|-----------------------------------------------------------------|
|-----------------------------------------------------------------|
|-----------------------------------------------------------------|
|-----------------------------3-----------------------------------|
|-7-------8---5-------5---7-------5-------5---3-------3---5-------|
|---5-5-5---5---3-3-3---3---3---3---3-3-3---3---1-1-1---1---3-3-3-|
    . . .   .   . . .   .   .   .   . . .   .   . . .   .   . . .

Riff C
|-----------------------------------------------------------------|
|-----------------------------------------------------------------|
|-----------------------------------------------------------------|
|-----------------------------------------------------------------|
|-7-------7---8---10--8---7---8---5-------5---3-------3---5-------|
|---0-0-0---0---0---0---0---0---0---3-3-3---3---1-1-1---1---3-3-3-|
    . . .   .   .   .   .   .   .   . . .   .   . . .   .   . . .

Riff D
|-------------------------------------------------------|
|-------------------------------------------------------|
|-------------------------------------------------------|
|-------------------------------------------------------|
|-------7-----9-----10--7-------7-----10p9p7------------|
|-0-0-0---0-0---0-0---0---0-0-0---0-0--------10-9-7-----|
  . . .   . .   . .   .   . . .   . .         . . .

Riff D, continued
|-------------------------------------------------------|
|-------------------------------------------------------|
|-------------------------------------------------------|
|--------------------------10---9-------9---7-----------|
|--------7-----9-----10--------------------------10p9---|
|-0-0-0----0-0---0-0---0-0----0---0-0-0---0---0---------|
  . . .    . .   . .   . .    .   . . .   .   .

Variation of "Riff D, continued" (played by gtr 2, over riff D)
|-------------------------------------------------------|
|-------------------------------------------------------|
|-------------------------------------------------------|
|-------------------------7-----------------------------|
|-------7-----9-----10--------10------10--9---5---------|
|-0-0-0---0-0---0-0---0-0---0---0-0-0---0---0---0-------|
  . . .   . .   . .   . .   .   . . .   .   .   .   

Riff E
|----------------------------------------------------------|
|----------------------------------------------------------|
|----------------------------------------------------------|
|--------------------------5p4h5-----------7p5h7-----------|
|-7p5h7----------------------------------------------------|
|----------0----0----0---------------0---------------0----0|
           .    .    .               .               .    .       

Riff E, continued
|------------------------------------------------------------|
|------------------------------------------------------------|
|------------------------------------------------------------|
|----5p4h5---------------4p2h4--------------------5p4h5------|
|------------------------------------------------------------|
|--------------0----0--------------0----0----0---------------|
               .    .              .    .    .
Comments