Callejon - Lass Mich Gehen Chords & Tabs

 

Callejon Chords & Tabs

Version: 1 Type: Tab 0 ratings
1 star 2 stars 3 stars 4 stars 5 stars
comments

Lass Mich Gehen Tab

CALLEJON - LASS MICH GEHEN!

Awesome Song and no Tab, so I tried it ;D
Tuning: D-Standart (also possible in Drop C)

Tabbed by ear, please write a PM for improvements ;) 

INTRO
||-------------------------------------------------------------------|
||-------------------------------------------------------------------|
||-------------------------------------------------------------------|
||---(tremolo picking)-----------------------------------------------|
||--12-12(x?)-------8-8(x?)--------10~--5~--10-8-7-5-----------------|
||--10-10(x?)-------6-6(x?)---------8~--3~---8-6-5-3-----------------|
      PM              PM                     . . . . 


VERSE (x2)
|--------------------------------------------------------------------|
|--------------------------------------------------------------------|
|-----14-----10-----14-----10-----12-----10--------------------------| x2
|--------0-0----0-0----0-0----0-0-----0------0-----------------------|
|--------------------------------------------------------------------|
|--------------------------------------------------------------------|
         . .    . .    . .    . .     .      .

|--------------------------------------------------------------------|
|--------------------------------------------------------------------|
|-----10------7-----10------7------9-----7---------------------------| x2
|--------0-0----0-0----0-0----0-0-----0-----0------------------------|
|--------------------------------------------------------------------|
|--------------------------------------------------------------------|
         . .    . .    . .    . .     .     .

|--------------------------------------------------------------------|
|--------------------------------------------------------------------|
|-----14-----12-----14-----12-----14-12-10-9-------------------------| x2
|--------0-0----0-0----0-0----0-0------------------------------------|
|--------------------------------------------------------------------|
|--------------------------------------------------------------------|
         . .    . .    . .    . . 

|--------------------------------------------------------------------|
|--------------------------------------------------------------------|
|------9------7------9------7------9-----7---------------------------| ()!
|--------0-0----0-0----0-0----0-0-----0-----0------------------------|
|--------------------------------------------------------------------|
|--------------------------------------------------------------------|
         . .    . .    . .    . .     .     .
[ Tab from: http://www.guitartabs.cc/tabs/c/callejon/lass_mich_gehen_tab.html ]
|--------------------------------------------------------------------|
|---------------------------------(2nd time pinch)-------------------|
|-----10------9-----12-----10-------14~------------------------------| ()!
|--------0-0----0-0----0-0----0-0------------------------------------|
|--------------------------------------------------------------------|
|--------------------------------------------------------------------|
         . .    . .    . .    . .   

 

CHORUS:
|--------------------------------------------------------------------|
|--------------------------------------------------------------------|
|--------------------------------------------------------------------|
|--------------------------------------------------------------------|
|-121212-1212-12-12-1212-12-8~-----101010-1010-10-10-1010-10-10~-----|
|-101010-1010-10-10-1010-10-6~------8-8-8--8-8--8--8--8-8--8--8~-----|


|--------------------------------------------------------------------|
|--------------------------------------------------------------------|
|--------------------------------------------------------------------|
|--------------------------------------------------------------------|
|-121212-1212-12-12-1212-12-8~-----101010-1010-10-10-1010-10()!-----|
|-101010-1010-10-10-1010-10-6~------8-8-8--8-8--8--8--8-8--8-()!-----|


|--------------------------------------------------------------------|
|------------------------11-----13~----------------------------------|
|----8-----10-----12-------------------------------------------------|
|-------0------0------0------0---------------------------------------|
|----------------------------------------/**  Pick Scratch   **/-----|
|----------------------------------------/** only 1st Chorus **/-----|
        .      .      .      .

VERSE (x2)

CHORUS


BRIDGE:
|----------------------||:-------------------------------------------|
|----------------------||:-------------------------------------------|
|----------------------||:-------------------------------------------|
|----------------------||:-accent:-x--------------x--------x--x------|
|--12~---7~---8~---3~--||:---------12-12-12-12-12-12-12-12-12-12-----|
|--10~---5~---6~---1~--||:---------10-10-10-10-10-10-10-10-10-10-----|
                                      .     .     .     .     

|------------------------------------------------------------------:||
|------------------------------------------------------------------:||
|------------------------------------------------------------------:||
|--x---------x-----x-x---x---------x-----x-x---x---------x-----x-x-:|| x3
|--7-7-7-7-7-7-7-7-7-7---8-8-8-8-8-8-8-8-8-8---3-3-3-3-3-3-3-3-3-3-:||
|--5-5-5-5-5-5-5-5-5-5---6-6-6-6-6-6-6-6-6-6---1-1-1-1-1-1-1-1-1-1-:||
     .   .   .   .         .   .   .   .         .   .   .   .

|----------------------|
|----------------------|
|----------------------|
|----------------------|
|--12~---7~---8~---3~--|
|--10~---5~---6~---1~--|


CHORUS (x2)


End on:
|------------------------------------------------------------------||
|------------------------------------------------------------------||
|------------------------------------------------------------------||
|-----------------------12---15------------------------------------||
|--121212-1212-12-12-12-------------12~~~~~~~~~~-------------------||
|--101010-1010-10-10-10----0-----0--10~~~~~~~~~~-------------------||
                           .     .
Comments