Calizen - Pits Of Hell Chords & Tabs

 

Pits Of Hell Chords & Tabs

Calizen Chords & Tabs

Version: 1 Type: Bass Tab 0 ratings
1 star 2 stars 3 stars 4 stars 5 stars
comments

Pits Of Hell Bass Tab

Intro:
      |-2-3/5--3-5/6--5-6/8-6-5-6-5-3-||-15-17/20-18-141514151415-17-||-14151415-191715-|
      |-------------------------------||-----------------------------||-----------------|
      |-------------------------------||-----------------------------||-----------------|        (2)x
      |-------------------------------||-----------------------------||-----------------| 
                                                                    
      

(Chorus:                                  )
(     |-----------------------|           )
(     |-----------------------|           )
(     |-------------0-3-0-----|     (8)x  )
(     |-3-0-5-3-565------3/5-|           )
(Verse:                                   )       (4)x
(     |---------------------|             )
(     |---------------------|             )
(     |---------------5-0-3-|       (4)x  )
(     |-0-0-3-0-5-000-------|             )

Solo: 
      |-19-19-21-19-17-15-17-19-||-19-17-15--17-2119-|
      |-------------------------||--------------------|
      |-------------------------||--------------------|
      |-------------------------||--------------------|
[ Tab from: http://www.guitartabs.cc/tabs/c/calizen/pits_of_hell_btab.html ]
      |-14-15/17-15-17/18-17-18/20-|(2)x
      |----------------------------|
      |----------------------------|
      |----------------------------|

      |-17-18/20-18-17-18/20-17-18/20-1817-1514-15--14-15/17-15-14-15/17-15-|
      |---------------------------------------------------------------------|
      |---------------------------------------------------------------------|
      |---------------------------------------------------------------------|

      |-19-17-15-14--15-14--15-14---12-|
      |--------------------------------|
      |--------------------------------|
      |--------------------------------|

(Chorus:                                  )
(     |-----------------------|           )
(     |-----------------------|           )
(     |-------------0-3-0-----|     (8)x  )
(     |-3-0-5-3-565------3/5-|           )
(Verse:                                   )       (2)x
(     |---------------------|             )
(     |---------------------|             )
(     |---------------5-0-3-|       (4)x  )
(     |-0-0-3-0-5-000-------|             )

 Outro:     |-2-3/5--3-5/6--5-6/8-6-5-6-5-3-|
      |-------------------------------|
      |-------------------------------|          ( Slowly fade after -3-|.)
      |-------------------------------|

Comments