Calibretto 13 - Creep Chords & Tabs

 

Creep Chords & Tabs

Calibretto 13 Chords & Tabs

Version: 1 Type: Bass Tab 0 ratings
1 star 2 stars 3 stars 4 stars 5 stars
comments

Creep Bass Tab

Song:Creep
Artist:Calibretto 13
Album:Enter the Danger Brigade
Tabbed By:Will Cotton

Hey  I thought this song was really cool so I decided to tab it.
Here goes

intro 1
A |--7\-5\-3\-2-|

intro2/Verse
G |------------------------------------------0----------|
D |----2--0--2--3--2--0--2----------3--2--3-----3--2-320|
A |-0---------------------------------------------------|
E |------------------------------0----------------------|

|---0--------------------------------------------------| 
|-------3--0-----0--2--0----------0-----0--2--0-----0--|
|3------------3----------------------3-----------3-----|
|------------------------------3-----------------------|

Right before the Pre Chorus on second verse the last riff goes
D |----0-----0--2--3--2--0----|
A |-------3-------------------|
E |-3-------------------------|

Pre-Chorus
|----------------------------------------------------|
|-------------------------------2--0--2--3--2--0--2--|
|----2--0--2--3--2--0--2-----0-----------------------|
|-0--------------------------------------------------|
[ Tab from: http://www.guitartabs.cc/tabs/c/calibretto_13/creep_btab.html ]
|--------------------------------------------2--0--------|
|-----------------------------------2--0--2---------3--2-|
|-------2--0--2--3--2--0--2------0-----------------------|
|----0---------------------------------------------------|

|-------------0-----------------0--0-----0--2--0-----0--|
|--3-3--2--3-----3--2--3--------------3-----------3-----|
|-------------------------------------------------------|
|-------------------------------------------------------|

|----------------0--------------1--1--1--1--1------------|
|--3--3--2--3-----3--2--3----------------------2--0------|
|----------------------------------------------------3---|
|--------------------------------------------------------|

Chorus
|----------------------------------2--0--------------|
|----2--0--2--3--2--0--2--------2--------3--0----0---|
|-0--------------------------0-----------------3-----|
|----------------------------------------------------|
"I Think you're a creep"


Bridge
Just hit A once until the drums start in then its this until every thing
drops off
A|0-----3--2-------|
E|---1-------------|

Thats about it, if anythings wrong give me an e-mail one_beautiful_loser@hotmail.com
Comments