Calibretto 13 - Ballroom Blitz Chords & Tabs

 

Ballroom Blitz Chords & Tabs

Calibretto 13 Chords & Tabs

Version: 1 Type: Bass Tab 0 ratings
1 star 2 stars 3 stars 4 stars 5 stars
comments

Ballroom Blitz Bass Tab

Ballroom Blitz (bass tab)
Artist: Calibretto 13
Album: Enter the Danger Brigade
Tabbed by Kyle Sanders (sanctifiedfreak@hotmail.com)


Interlude
G-----------------------------------------
D-----22-33-22-3p2-2------22-33-22-3p2----
A--------------------------------------3--
E--33------------------33-----------------


Verse 1
G--------------------------------------------------
D---------------------------------------(--1-5-1--)
A--3-3-3-3-3-3-3-3-2--3-3-3-3-3-3-3-3-2-(3-------3)
E--------------------------------------------------
                                        (second time)

Prechorus
G--------------------
D--------------------
A--------------------
E--3----3----3----3--

G------------------------------------------------------------------
D------------------------------1-111-111-11h3p1--------------------
A--0-000-000-000-3-333-333-333-------------------------------------
E-----------------------------------------------3-333-333-33333333-

[ Tab from: http://www.guitartabs.cc/tabs/c/calibretto_13/ballroom_blitz_btab.html ]
Chorus                        
G-----------------------------------------
D-----------------------------------------
A--0-0-0-0--3-333333--5-5-5-5-------------
E------------------------------3-333-33--- (x2)

G------------------
D------------------
A------------------
E--1-2-3---1-2-3--- (x2)


Verse 2
G-----------------------------5-3----
D----2-3-2-55-2-3p2-----2-3-2-----5--
A--3------------------3--------------
E------------------------------------


Interlude 2
G---------------------------------------
D-----22-33-2-3p2--------22-33-2-3p2----
A-----------------3------------------3--
E--33-----------------33----------------


Chorus 2
G-----------------------------------------
D----------------------------------3h5----
A--0-0-0-0--3-333333--5-5-5-5-------------
E------------------------------3-3-------- 

G-----------------------------------------
D-----------------------------------------
A--0-0-0-0--3-333333--5-5-5-5-------------
E------------------------------3-333-33---

G------------------
D------------------
A------------------
E--1-2-3---1-2-3--- (x2)


Bridge
G------------------
D------------------
A------------------
E--3--3--11-2-3----


End
G-------
D-------
A-------
E--3\0--
Comments