Caliban - Fire Of The Night Chords & Tabs

 

Fire Of The Night Chords & Tabs

Caliban Chords & Tabs

Version: 1 Type: Bass Tab 0 ratings
1 star 2 stars 3 stars 4 stars 5 stars
comments

Fire Of The Night Bass Tab

   
Caliban-Fire Of The Night
Vent EP, '96

tabbed by : Def 
Email: edmantheruler@hotmail.com




Intro         Riff A (4x)
f:-----------|-------------------------------------
c:-----------|-------------------------------------
g:-SLOW------|-7-8--------10-8-10-8----------------
D:-0-0-0-0---|-----000000--------------------------
						

Riff B (4x)
f:-------------------------------------------------
c:--------6.---------------------------------------
g:----7-8----10-8-10-8-----------------------------
d:-------------------------------------------------

Riff A (4x)
f:-------------------------------------------------
c:-------------------------------------------------
g:-7-8---------10-8-10-8---------------------------
d:-----000000-----=--------------------------------


chorus(4x)
[ Tab from: http://www.guitartabs.cc/tabs/c/caliban/fire_of_the_night_btab.html ]
f:-------------------------------------------------
c:-------------------------------------------------
g:-------------------------------------------------
d:-00-0-0-0-000-0-0-0------------------------------
			
pre-verse (1x)
f:-------------------------------------------------
c:-------------------------------------------------
g:-------------------------------------------------
d:-0-0-1-0-0-1-2-0-0-1-0-0-1-----------------------
			

verse (4x)                    end of verse 
f:---------------------------|---------------------
c:---------------------------|---------------------
g:---------------------------|---------------------
d:-0-1-0-0-1-2--0-1-0-0-1-2--|-0-0-0-0-1-0-(3x)-0--


Riff A (4x)
f:-------------------------------------------------
c:-------------------------------------------------
g:-7-8--------10-8-10-8----------------------------
d:----000000---------------------------------------
			

break (5x)                  end of break (1x strum)
f:-------------------------|-----------------------
c:-------------------------|-----------------------
g:---5-3-3--3-2------------|-----------------------
d:-0------------3-0--------|-0-0-0-----------------

		
end (4x)

f:-------------------------------------------------
c:-------------------------------------------------
g:-------------------------------------------------
d:-00-0-0-0-000-0-0-0------------------------------
Comments