Caliban - Dark Shadows Chords & Tabs

 

Dark Shadows Chords & Tabs

Caliban Chords & Tabs

Version: 1 Type: Tab 0 ratings
1 star 2 stars 3 stars 4 stars 5 stars
comments

Dark Shadows Tab

   
Song: Dark Shadows
Artist: Caliban
Album: Shadow Hearts
Tuning: C# F# B E G# C (low to high)
by Christoph Thiele
ddevil01@gmx.de

Symbols:
~~ = let ring
.  = palm mute
B  = bend
r  = release


Riff 1 (clean)

|------|--------14------|------|--------14-----17-----------|
|------|--12-13----13---|------|--12-13----13-----13-12-----|
|------|o---------------|------|---------------------------o|   x4
|------|o---------------|------|---------------------------o|
|------|----------------|------|----------------------------|
|--0---|----------------|--0---|------------------------0---|

Then:
[ Tab from: http://www.guitartabs.cc/tabs/c/caliban/dark_shadows_tab.html ]
|--------14-----|
|--12-13----13--|
|---------------|
|---------------|
|---------------|
|---------------|

Riff 2 (distortion)

|---------------------------------------------------------------------|
|---------------------------------------------------------------------|
|---------------------------------2-----------------------------------|  x2
|---------------------------------1--------------------------------5--|
|------------2---2~~--------2-1---0-----------2---2~~--------4-3---3--|
|--0-2br-0-1-0-0-0~~----1-2-----0---0-2br-0-1-0-0-0~~----3-4-----0----|
               .                .               .                .

End with:

|-----|
|-----|
|-----|
|--4~~|
|--2~~|
|-----|
Comments