Caliban - Arena Of Concliment Chords & Tabs

 

Arena Of Concliment Chords & Tabs

Caliban Chords & Tabs

Version: 1 Type: Tab 0 ratings
1 star 2 stars 3 stars 4 stars 5 stars
comments

Arena Of Concliment Tab

caliban, arena of concilment.
 Tabbed by Los pouelos.
  
-------------------------------------------------------------------------------
                             Arena of concilment - Caliban
-------------------------------------------------------------------------------

By:Los Pouelos

drop d tuning

riff 1                        on the 4th time....
e|--------------------------|------------------------------------------|
B|--------------------------|------------------------------------------|
G|--------------------------|------------------------------------------|
D|-0000-----0000-----00-----|-00000-----1-4-3-0------------------------|
A|-0000-5h6-0000-6h8-00-8h9-|-00000-5h6-1-4-3-0------------------------|
E|-0000-----0000-----00-----|-00000-----1-4-3-0------------------------|
    pm        pm     pm        pm
[ Tab from: http://www.guitartabs.cc/tabs/c/caliban/arena_of_concliment_tab.html ]
riff2
e|---------------------------------------------------------------------|
B|---------------------------------------------------------------------|
G|---------------------------------------------------------------------|
D|-0-1-4-3-0-1-3-4-----------------------------------------------------|
A|-0-1-4-3-0-1-3-4-00000000-1111111111---------------------------------|
E|-0-1-4-3-0-1-3-4-----------------------------------------------------|
   |----pm-----|

riff 3
guitar 1     guitar 2
e|---------|-----------------------------------------------------------|
B|---------|-----------------------------------------------------------|
G|-----3-2-|-----------------------------------------------------------|
D|-0-1-----|-0--00-00-3--1-4-3-0--00-00-1--1-4-3-0---------------------|
A|---------|-0--00-00-3--1-4-3-0--00-00-1--1-4-3-0---------------------|
E|---------|-0--00-00-3--1-4-3-0--00-00-1--1-4-3-0---------------------|

riff4 (each notes are played bunch of time with fast picking)
e|---------------------------------------------------------------------|
B|---------------------------------------------------------------------|
G|---------------------------------------------------------------------|
D|---3-2---3-2---3-2---3-2---------------------------------------------|
A|-0-----0-------------------------------------------------------------|
E|-------------3-----2-------------------------------------------------|

these are all the riff... just figure out where they're played
corrections-->killaz_alfred@hotmail.com 
:: Ultimate Guitar Archive :: 
http://www.ultimate-guitar.com 



Comments