Calexico - Ballad Of Cable Hogue Chords & Tabs

 

Ballad Of Cable Hogue Chords & Tabs

Calexico Chords & Tabs

Version: 1 Type: Chords 0 ratings
1 star 2 stars 3 stars 4 stars 5 stars
comments

Ballad Of Cable Hogue Chords

   
standard tuning     www.casadecalexico.com   country american band from the usa
[ Tab from: http://www.guitartabs.cc/tabs/c/calexico/ballad_of_cable_hogue_crd.html ]
intro x4   am     g    am    am    g    d5    am           am    g     f   am
e---0-------0----3-----0-----0-----3-----0-----0------------0-----3-----0---0--
b---0-------1----3-----1-----1-----3-----3-----1------------1-----3-----1---1--
g---0-------2----0-----2-----2-----0-----2-----2------------2-----0-----2---2--
d---2-------2----0-----2-----2-----0-----0-----2------------2-----0-----3---2--
a---2-------0----2-----0-----0-----2-----0-----0------------0-----2-----3---0--
e---0-------0----3-----0-----0-----3-----0-----0------------0-----3-----0---0--

  this for the verses                                  i new her love would be
                                                       the death of mine.....
e----0----3----0----0---
b----1----3----1----1---
g----0----0----0----2---
d----2----0----2----2---
a----3----2----3----0---
e----0----3----0----0---
     c    g    c    am

this for the chourus......do me a favour while im hanging here.....
Comments