Calamaro Andres - Flaca Chords & Tabs

 

Flaca Chords & Tabs

Calamaro Andres Chords & Tabs

Version: 1 Type: Tab 0 ratings
1 star 2 stars 3 stars 4 stars 5 stars
comments

Flaca Tab

Flaca - Andrés Calamaro

Intro:
e|-----------------------------------------------------------|
G|-3--0---0-3-4--0---0-4-5--0---0-3-3b1-1-0-3-0---0-3-3-0----|
B|-----2-0--------2-0--------2-0---------------2-0-------2-0-|
D|-----------------------------------------------------------|
A|-----------------------------------------------------------|
E|-----------------------------------------------------------|
[ Tab from: http://www.guitartabs.cc/tabs/c/calamaro_andres/flaca_tab.html ]
Final:
e|-----------------------------------------------------------|
G|-3--0---0-3-4--0---0-4-5--0---0-3-3b1-1-0-3-0---0-3-3-0----|
B|-----2-0--------2-0--------2-0---------------2-0-------2-0-|
D|-----------------------------------------------------------|
A|-----------------------------------------------------------|
E|-----------------------------------------------------------|

e|--------------------------------------------------|
G|--------------5-4--7-5--0-3-1--0-0-4-5--0-3-4-----|
B|------0-2-5--4---------------------------2----2-0-|
D|-0-2-4--------------------------------------------|
A|--------------------------------------------------|
E|--------------------------------------------------|
Comments