Calabrese - Children Of The Night Chords & Tabs

 

Children Of The Night Chords & Tabs

Calabrese Chords & Tabs

Version: 1 Type: Bass Tab

Children Of The Night Bass Tab

Follow along with the song for the rhythm changes.

Chorus

F|-------------------------------------------------------------------||
C|-------------------------------------------------------------------||
G|-9-9-9-9-9-9-7-7-7-7-7-7-------------------------------------------||
D|-------------------------7-7-7-7-7-7-5-5-5-5-5-5-------------------||

Verse 1

F|-------------------------------------------------------------------||
C|-------------------------------------------------------------------||
G|-5-5-5-5-5-5-5-5-5-5-5-5-4-4-4-4-4-4-4-4-4-4-4-4-------------------||
D|-------------------------------------------------------------------||
[ Tab from: http://www.guitartabs.cc/tabs/c/calabrese/children_of_the_night_btab.html ]
F|-------------------------------------------------------------------||
C|-------------------------------------------------------------------||
G|-5-5-5-5-5-5-5-5-5-5-5-5-7-7-7-7-7-7-7-7-7-7-7-7-8-8-8-8-9---------||
D|-------------------------------------------------------------------||

Verse 2 

F|-------------------------------------------------------------------||
C|-------------------------------------------------------------------||
G|-8-8-8-8-8-8-8-8-8-8-8-8-------------------------------------------||
D|-------------------------5-5-5-5-5-5-5-5-5-5-5-5-------------------||

Bridge 

F|-------------------------------------------------------------------||
C|-------------------------------------------------------------------||
G|-------------------------------------------------------------------||
D|-9-9-9-9-9-9-9-9-9-9-9-9/5-5-5-5-5-5-5-5-5-5-5-5-------------------||