Calabrese - Blood In My Eyes Chords & Tabs

 

Blood In My Eyes Chords & Tabs

Calabrese Chords & Tabs

Version: 1 Type: Bass Tab

Blood In My Eyes Bass Tab

Follow along with the song for the rhythm changes.


Into and Verses


F|-------------------------------------------------------------------||
C|-------------------------------------------------------------------||
G|-2-2-2-2-2-5-5-5-5-5-----------------------------------------------||
D|--------------------3-3-3-3-3-5-5-5-5-5----------------------------||

Chorus
[ Tab from: http://www.guitartabs.cc/tabs/c/calabrese/blood_in_my_eyes_btab.html ]
F|-------------------------------------------------------------------||
C|-------------------------------------------------------------------||
G|-------------2-2-2-2-2-2-5-5-5-5-5-5-5-5-5--5----------------------||
D|-3-3-3-3-3-3----------------------------------6-5------------------||

Bridge

F|----------------------||
C|----------------------||
G|-7-7------5-5---------||
D|------7-7-----5-5-5-5-||