Cake - Where Would I Be Chords & Tabs

 

Where Would I Be Chords & Tabs

Cake Chords & Tabs

Version: 4 Type: Tab 0 ratings
1 star 2 stars 3 stars 4 stars 5 stars
comments

Where Would I Be Tab

This version of Where Would I Be? sounds much more complete, and if you're good enough,
it can be used as a good way of tuning your guitar (that's how I tune mine). The timing
is close, but you'd have to listen to the song to get it completely right.  If you have
any questions or comments about it, email me at HikareCG101@gmail.com.
[ Tab from: http://www.guitartabs.cc/tabs/c/cake/where_would_i_be_tab_ver_4.html ]
e|0-3-0-----------------------------------------|
B|------0---------------------------------------|
G|------------0--24-4---------------------0-----|
D|------------------------2-22-2-22-2-2-24------|
A|------2-----3---2-0----------2----3-2-5-------|
E|0---------------------320---------------------|

The song basically repeats this part throughout, except near the ending, which is a small variation:

e|0-3-0---------------------------------------------|
B|------0-------------------------------------------|
G|------------0--24-4-------------------------0-----|
D|------------------------2-2222-2-2222-2-2-24------|
A|------2-----3---2-0------------2------3-2-5-------|
E|0---------------------320-------------------------|
Comments