Cake - Where Would I Be Chords & Tabs

 

Where Would I Be Chords & Tabs

Cake Chords & Tabs

Version: 2 Type: Tab 0 ratings
1 star 2 stars 3 stars 4 stars 5 stars
comments

Where Would I Be Tab

   
Title: Where Would I Be?
Artist: Cake
Album: Prolonging the Magic

   (intro)(x2)
e|------------------------------------------|
B|-5-8-5------------------------------------|
G|-------4-----4-4--------------------------|
D|---------5-7--------------------------4-5-|
A|--------------------7-7-7-7--7-7-7--7-----|
E|------------------------------------------|

   (verse)(x2)
e|-------------------------|
B|-------------------------|
G|-------------------------|
D|----------------------0--|
A|-3-2-0------------3-2----|
E|--------3-2-0--0---------|

   (bridge)(x2)
e|-------------------------------------|
B|-15-15-15--12-12-12--8-8-8-8-8-8--12-|
G|-14-14-14--11-11-11--7-7-7-7-7-7--11-|
D|-------------------------------------|
A|-------------------------------------|
E|-------------------------------------|

   (end of bridge)
e|----------------------|
B|-12-13-12-13-12-13-12-|
G|-11-11-11-11-11-11-11-|
D|----------------------|
A|----------------------|
E|----------------------|
[ Tab from: http://www.guitartabs.cc/tabs/c/cake/where_would_i_be_tab_ver_2.html ]
   (Fill played on trumpet) 
e|-----------------|
B|-12-13-13--------|
G|-----------------|
D|-----------14-15-|
A|-----------------|
E|-----------------|

   (Chorus)
e|--------------------------------|
B|--------------------------------|
G|-9-9-9-9-9-9--12-12-12-12-12-12-|
D|-9-9-9-9-9-9--12-12-12-12-12-12-|
A|-7-7-7-7-7-7--10-10-10-10-10-10-|
E|--------------------------------|

e|--------------------------------------|
B|--------------------------------------|
G|-9--9--9--9--9--9---11-11-11-11-11-11-|
D|-10-10-10-10-10-10--12-12-12-12-12-12-|
A|-10-10-10-10-10-10--12-12-12-12-12-12-|
E|--------------------------------------|

e|--------------------------------|
B|--------------------------------|
G|-9-9-9-9-9-9--12-12-12-12-12-12-|
D|-9-9-9-9-9-9--12-12-12-12-12-12-|
A|-7-7-7-7-7-7--10-10-10-10-10-10-|
E|--------------------------------|

e|-------------------------------|
B|-------------------------------|
G|-9--9--9--9--9--9---11--11--12-|
D|-10-10-10-10-10-10--12--12--13-|
A|-10-10-10-10-10-10--12--12--13-|
E|-------------------------------|

(repeat from beginning of the song.  the second time around play 
the chorus through twice. end on the intro)

thats the entire song.  the bass fills a lot of the 
verse so the timing really depends on it.  e mail any
questions to rjo2929@hotmail.com
Comments