Cake - The Distance Chords & Tabs

 

The Distance Chords & Tabs

Cake Chords & Tabs

Version: 5 Type: Tab 0 ratings
1 star 2 stars 3 stars 4 stars 5 stars
comments

The Distance Tab

   
-------------------------------------------------------------------------------
			     THE DISTANCE - CAKE
-------------------------------------------------------------------------------
Tabbed by: Spikey Mike
Email: 
[ Tab from: http://www.guitartabs.cc/tabs/c/cake/the_distance_tab_ver_5.html ]
Tuning:Standard EADGBe
Verse
e|---------------------------------------------------------------------------|
B|-0---1/3\1-0-----0h1p0-----------------------------------------------------|
G|-0---2/4\2-0-2---0h2p0-2---------------------------------------------------|
D|-------------4---------4---------------------------------------------------|
A|---------------------------------------------------------------------------|
E|---------------------------------------------------------------------------|
If you want to back up the trumpet, or you don't have a trumpet, play this at the end of the verse.
e|---------------------------------------------------------------------------|
B|-12~-11~--10~-9~----8-10---------------------------------------------------|
G|------------------9-----/11~-9~--9~-9~-------------------------------------|
D|---------------------------------------------------------------------------|
A|---------------------------------------------------------------------------|
E|---------------------------------------------------------------------------|
Chorus Riff
e|---------------------------------------------------------------------------|
B|---------------------------------------------------------------------------|
G|---------------------------------------------------------------------------|
D|---------------------------------------------------------------------------|
A|-------------------------------------/7-7p5--------------------------------|
E|-0-0-0-0-0-0-0-3-5-6-7--0-0-0-0-0-0-0-------7------------------------------|
Other Riff
e|---------------------------------------------------------------------------|
B|---------------------------------------------------------------------------|
G|---------------------------------------------------------------------------|
D|-------2-------------------------------------------------------------------|
A|-1p0-----------0-1-2-------------------------------------------------------|
E|-----3----3--0-------------------------------------------------------------|

| /  slide up
| \  slide down
| h  hammer-on
| p  pull-off
| ~  vibrato
| +  harmonic
| x  Mute note
===============================================================================
Comments