Cake - The Distance Chords & Tabs

 

The Distance Chords & Tabs

Cake Chords & Tabs

Version: 2 Type: Tab 0 ratings
1 star 2 stars 3 stars 4 stars 5 stars
comments

The Distance Tab

Its pretty simple if u can get the rythem(thats mispelled)i dont... know

here goes

e-----------------------------------------------|
B-----------------------------------------------|
G-----------------------------------------------|
D-----------------------------------------------|
A--------------------------------0h1h2------|
E----00--00--00--0--3^--------------------|

[ Tab from: http://www.guitartabs.cc/tabs/c/cake/the_distance_tab_ver_2.html ]
e---------------------------------------------|
B---------------------------------------------|
G---------------------------------------------|
D---------------------------------------------|
A-----------------------5\7---7---5--------|
E----00--00--00---------------------7----|

THATS THE CHORUS

heres the the other part

e----------------------------------------------|
B--12---12h13----10----12h13--------|
G--12---12h14----11----12h14--------|
D----------------------------------------------|
A----------------------------------------------|
E----------------------------------------------|

REPEAT
Comments