Cake - The Distance Chords & Tabs

 

The Distance Chords & Tabs

Cake Chords & Tabs

Version: 1 Type: Bass Tab 0 ratings
1 star 2 stars 3 stars 4 stars 5 stars
comments

The Distance Bass Tab

TiTle 	: Going The Distance
By	: Cake
Author	: CALEB DOMINGO (from Manila, Philippines)
          *slight correction* by kjs (BassAce77@hotmail.com)
Email	: cdindinc@mkt.lzn.weblinq.com
****************
Correction notes: The variation on the "pre-chorus" part when each verse
                  ends was incorrect. 

The verse part goes like this and repeats

G|------------------------|
D|------------------------|
A|-5-6-7-------5-6-7------|
E|-------0---0-------0-0--|

Then the Pre-chorus Part....
[ Tab from: http://www.guitartabs.cc/tabs/c/cake/the_distance_btab.html ]
G|---------------------------------------------------|
D|------5--------------------------------------------|
A|-/7-------7----7--7-5------------------/7-7-7-5----|
E|--------7----7--------7---3-3-4-5--7-0-----------7-|

Chorus..... "Coz' he's goin the distance...."

G|------------------------|
D|------------------------|
A|-5-6-7-------5-6-7------|
E|-------0---0-------0-0--|

It'll go like this in the end part of the chorus....

G|---------------------------------------------------|
D|------5--------------------------------------------|
A|-/7-----5------------------5---7------7-7-5--------|
E|----------7--7-7--5-3---7----7------7-------7------|

Comments