Cake - Stick Shifts And Safety Belts Chords & Tabs

 

Stick Shifts And Safety Belts Chords & Tabs

Cake Chords & Tabs

Version: 1 Type: Tab 2 ratings
1 star 2 stars 3 stars 4 stars 5 stars
comments

Stick Shifts And Safety Belts Tab

   
Tabbed By: Tyler Winterton

this tab is dang good.

i did NOT add all of the hammers and pulls that you will
hear in the song. i guess i figure you people can figure
that out on your own.

b=bend

PART I

Intro

e----------------------------------------------------
------------------------------------------------------
------------------------------------------------------
---------------------------------2-4--5\4---5\4-2-----
----------2----------2---0--3-4-------------------4---
E-0---3-4-----0--3-4---------------------------------


e----------------------------------------------------
------------------------------------------------------
------------------------------------------------------
--------------------------------4----2----------------
----------2----------2--2--4/6----6-----4---2---------
E-0---3-4-----0--3-4--------------------------3b-----


e----------------------------------------------------
----------------------------5-------------------------
-----------------------4-6----------------------------
---------------2--4/6---------------------------------
---------2--4-----------------------------------------
E-0--3-4---------------------------------------------

**************************************************************
PART II

"when we're drivin'        in the car..."
e----------------------------------------------------
------------------------------------------------------
------------------------------------------------------
---2--2--2--2--2--2--2--2--4--6--4--6--4--66--4--6----
---2--4--2--4--2--4--2--4--2--2--2--2--2--22--2--2----
E--0--0--0--0--0--0--0--0----------------------------


e----------------------------------------------------
------------------------------------------------------
------------------------------------------------------
---2--4--2--4--2--4--2--4--2--2--2--2--2--22--2--2----
---0--0--0--0--0--0--0--0--2--4--2--4--2--44--2--4----
E--------------------------0--0--0--0--0--0--0--0----

**************************************************************

  "I need          you     here   with   me..."
e----------------------------------------------------
------------------------------------------------------
------------------------------------------------------
---2--2--2--2--2--2--2--2----------2----------2-------
---2--2--2--2--2--2--2--2---0--3-4----0--3--4---------
E--0--0--0--0--0--0--0--0----------------------------


e----------------------------------------------------
------------------------------------------------------
------------------------------------------------------
-----------------------------------4-6--7\66-7\6--4---
----------2-4-5\4-5\4-2-----2--4/6------------------6-
E--0--3-4----------------4---------------------------


e----------------------------------------------------
------------------------------------------------------
------------------------------------------------------
--2--------------------------2---------2--------------
----4-2------------2--0--3-4----0--3-4------------2---
E-------3b--0--3-4------------------------0--3-4-----


e----------------------------------------------------
------------------------------------------------------
--------------------------------------------------4-6-
---------------------------4----------------2-4/6-----
--4--5\4-5\4--2-----2--4/6---6---------2-4------------
E---------------4---------------0--3-4---------------

             |this part is really quiet|
e----------------------------------------------------
--5---------------------------------------------------
----6-4-----------------------------------------------
--------6\2----2--------------------------------------
-----------------4-2----------------------------------
E--------------------3b-0----------------------------

***PART II***

next verse:
I need    you    here with me..."
e----------------------------------------------------
------------------------------------------------------
------------------------------------------------------
--2--(------)----------2---------2--------------------
--2--(--X8--)---0--3-4----0--3-4-------------2-4--5\4-
E-0--(------)------------------------0--3-4----------

[ Tab from: http://www.guitartabs.cc/tabs/c/cake/stick_shifts_and_safety_belts_tab.html ]
e----------------------------------------------------
------------------------------------------------------
------------------------------------------------------
-------------------4-6--7\6-7\6--4--------------------
--5\4--2----2--4/6-----------------6----------2-------
E--------4----------------------------0--3-4-----0---


e----------------------------------------------------
------------------------------------------------------
------------------------------------------------------
-----------------2-4--5\4-5\4--2---2------------------
-------2--0--3-4-----------------4---4-2------------2-
E--3-4-----------------------------------3b-0--3-4---

                                        
e----------------------------------------------------
-----------------------------------5------------------
-------------------------------4-6---6-4--------------
---------4---------------2-4/6-----------6\\2---------
--2--4/6---6---------2-4------------------------------
E-------------0--3-4---------------------------------

"alottagood caaaaars"   |just go craaazy with these|
e----------------------------------------------------
------------------------------------------------------
------------------------------------------------------
-2--4--2--4--2-(----)--2---2---2---2---2----2-2-2---2-
-0--0--0--0--0-(-X?-)----4---4---4---4---4---4-4--4---
E----------------------------------------------------

"butwhenweredrivinfar i needmybaby i needmybabynextto 
e----------------------------------------------------
------------------------------------------------------
------------------------------------------------------
-2--4--2--4--2--4(----)----4--6--4--6--4--66--4--6--4-
-0--0--0--0--0--0(-X?-)----2--2--2--2--2--22--2--2--2-
E----------------------------------------------------

meeeeeeeeeeeeeeeeeeeeeeeeeeeeeeeeeeeeeeeeeeeeeeeeeeee
e----------------------------------------------------
------------------------------------------------------
------------------------------------------------------
-----------------------------2-4--5\4-5\4---2---2-----
---------2---------2--0--3-4------------------4---4-2-
E-0--3-4----0--3-4-----------------------------------

eeeeeeeeee ooooh....         well"
e----------------------------------------------------
--------------------------4---------------------------
--------------------------4---------------------------
-----------------------4------------------------------
------------2--2--4-6---------------------------------
E-3b-0--3-4------------------------------------------

last verse:


***PART II***


  "I need          you     here   with   me..."
e----------------------------------------------------
------------------------------------------------------
------------------------------------------------------
---2--2--2--2--2--2--2--2----------2----------2-------
---2--2--2--2--2--2--2--2---0--3-4----0--3--4---------
E--0--0--0--0--0--0--0--0----------------------------


e----------------------------------------------------
------------------------------------------------------
------------------------------------------------------
-----------------------------------4-6--7\66-7\6--4---
----------2-4-5\4-5\4-2-----2--4/6------------------6-
E--0--3-4----------------4---------------------------


e----------------------------------------------------
------------------------------------------------------
------------------------------------------------------
--2--------------------------2---------2--------------
----4-2------------2--0--3-4----0--3-4------------2---
E-------3b--0--3-4------------------------0--3-4-----

"not way over         in    a    bucket 
e----------------------------------------------------
------------------------------------------------------
------------------------------------------------------
------------------------------------------------------
--4--5\4-5\4--2-----2---------------------------------
E---------------4------------------------------------

  seat"
e----------------------------------------------------
------------------------5-----------------------------
--------------------4-6---6-4-------------------------
-------------2--4/6-----------6\2---------------------
---------2-4------------------------------------------
E-0--3-4---------------------------------------------




NOTE!
hey, ok. on this tab, i didnt specify where there were hammers
or pull offs and that sort of thing. just kinda use your brains
i guess. but be aware, that there are a ton. and the guy plays
it all crazy. its like, he plays everything here, but plucks and
does crazy patterns sometimes. but all in all, this tab is dang good.
Comments