Cake - Short Skirt Long Jacket Chords & Tabs

 

Short Skirt Long Jacket Chords & Tabs

Cake Chords & Tabs

Version: 1 Type: Bass Tab 0 ratings
1 star 2 stars 3 stars 4 stars 5 stars
comments

Short Skirt Long Jacket Bass Tab

#----------------------------------PLEASE NOTE---------------------------------#
#This file is the author's own work and represents their interpretation of the-#
#song. You may only use this file for private study, scholarship, or research.-#
#---------------This file was downloaded from www.taborama.com-----------------#
#------------------------------------------------------------------------------#


Short Skirt, Long Jacket
By: Cake
Album: Their new one.
Tabbed By: Dave Cohen [cohend@wam.umd.edu] 

Standard Tuning

This song is pretty nice, and it really grows on you. I found myself 
really liking it for no apparent reason, but I figured I'd tab it out 
cause it's a lot of fun to play. I didn't take much time figuring
it out so some of it may be off. Listen to the song to get the right 
timming. Email me with questions/revisions/comments, etc.

Enjoy.


Verse:
[ Tab from: http://www.guitartabs.cc/tabs/c/cake/short_skirt_long_jacket_btab.html ]
G----------------------------------------------------
D----------------------------------------------------
A--5-3h5-3h5-3h5p3-----------------------------------
E------------------5-1-3-5---------------------------

G----------------------------------------------------
D----------------------------------------------------
A--5-3-5---------------------------------------------
E--------1-3-5---------------------------------------

Pre-Chorus ?

G----------------------------------------------------
D----------------------------------------------------
A-5-5------------------------------------------------
E-----5-3-3-5--------------------------...33333333---

Chorus:

G----------------------------------------------------
D----------------------------------------------------
A----------------------------------------------------
E-5-3h5-3h5------------------------------------------

Bridge:

G----------------------------------------------------
D----------------------------------------------------
A-5-5-3h5-3h5-------------------3--------------------
E-------------5-3-3-3-1h3-1h3-5----------------------
.. na na na na na na ..



Downloaded from www.taborama.com

================================================================================

Comments