Cake - Satan Is My Motor Chords & Tabs

 

Satan Is My Motor Chords & Tabs

Cake Chords & Tabs

Version: 2 Type: Tab 0 ratings
1 star 2 stars 3 stars 4 stars 5 stars
comments

Satan Is My Motor Tab

Here's what I have for the chorus of this song:

----------------------------------------------|
----------------------------------------------|
-2--2--2---3--3--3---2--2--7--5---------------|
-3--3--3---5--5--5---3--3--8--7---------------|
----------------------------------------------|
----------------------------------------------|
[ Tab from: http://www.guitartabs.cc/tabs/c/cake/satan_is_my_motor_tab_ver_2.html ]
----------------------------------------------|
----------------------------------------------|
-7--7--7----8---8---8---------10---8--7-------|
-8--8--8---10--10--10--10/12--12--10--8-------|
----------------------------------------------|
----------------------------------------------|

This is probably one of the coolest guitar parts I know,  I finally figured it
out after messing around with it for a while, but it sounds right,

Have fun
djtrifecta2000
Comments