Cake - Open Book Chords & Tabs

 

Open Book Chords & Tabs

Cake Chords & Tabs

Version: 1 Type: Bass Tab 0 ratings
1 star 2 stars 3 stars 4 stars 5 stars
comments

Open Book Bass Tab

Drop D tuning

INTRO (comes in at 0:23)
G:-------------------------------------------------------|
D:----8-7-5----------------------------------------------|
A:-5~-------875-578755~-8-7-5-875-57875-5----------------| x4
D:-------------------------------------------------------|
(Slide down from A:-3- on the 4th time)

PRE-CHORUS:
G:--------------------------------------------------------|
D:--------------------------------------------------------|
A:-5~---------3/5-----------------------------------------|
D:---00-00-323---00-000323/8-00-000323/8-00-000323/10-----|

G:---------------------------------------------------------|
D:---------------------------------------------------------|
A:----------3/5---------3/5--------------------------------|
D:-00-000323---00-000323---00-000323-----------------------|
[ Tab from: http://www.guitartabs.cc/tabs/c/cake/open_book_btab.html ]
CHORUS:
G:---------------------------------------------------------|
D:---------------------------------------------------------|
A:-3~1-----------1~------------------3~1-------------------|
D:----7~753~-3313--7-5-3-2~52~52~5252---7~753~-------------|

G:---------------------------------------------------------|
D:---------------------------------------------------------|
A:-3~3-3-33~3-3-3/5----------------------------------------|
D:---------------------------------------------------------|

VERSE X4
PRE-CHORUS
CHORUS

G:-------------------------------------------------------|
D:-------------------------------------------------------|
A:-3~1----------------1----------------------------------| x2
D:----7-5-3~-357753-53---7-5-3-2-52525253232-------------|


OUTRO:
G:---------------------------------------------------------|
D:---------------------------------------------------------|
A:-3-33-3-3~~----------------------------------------------|
D:---------------------------------------------------------|
Comments