Cake - Let Me Go Chords & Tabs

 

Let Me Go Chords & Tabs

Cake Chords & Tabs

Version: 5 Type: Tab 0 ratings
1 star 2 stars 3 stars 4 stars 5 stars
comments

Let Me Go Tab

   
Cake
Let Me Go
Prolonging The Magic

Listen to the song to get the rythem on this part:

e|-----------------------------------------------------|
b|-2-2-2-2-2-3-3-3-3-3-3-3-3-2-2-2-2-2-5-5-5-5-5-5-5-5-|
g|-2-2-2-2-2-2-2-2-2-2-2-2-2-2-2-2-2-2-4-4-4-4-4-4-4-4-|
d|-----------------------------------------------------|
a|-----------------------------------------------------|
e|-----------------------------------------------------|

The hard, but fun part, and its right:
[ Tab from: http://www.guitartabs.cc/tabs/c/cake/let_me_go_tab_ver_5.html ]
e|-------------------------------|\----- \
b|-----------------------------3-|------ \
g|---2-1----------------------2--| ----- \
d|-------2-4-2---0-----------0---|  ---- \
a|-0-----------4---4-2---0-------|   --- \
e|---------------------4---2-----|    -- \
                                        \
e|-----------------------------0-|      /--- \x2
b|----------------------------0------------- \     /
g|---2-1------------------------------------ \    /
d|-------2-4-2-0---0---------2-------------- \   /
a|-0-------------4---4-2--0----------------- \  /
e|----------------------4---2--------------- \ /


Stevie
Comments