Cake - Italian Leather Sofa Chords & Tabs

 

Italian Leather Sofa Chords & Tabs

Cake Chords & Tabs

Version: 4 Type: Tab 0 ratings
1 star 2 stars 3 stars 4 stars 5 stars
comments

Italian Leather Sofa Tab

Band - Cake
Song - Italian Leather Sofa, also the Mission Hill Theme Song
Album - Fashion Nugget
Tabber - Brenden Cline (feret182)

Part A Rhythm
e-----------------------------|
B-----------------------------|
G-5----5---5-55-5----5---5-55-|
D-5----5---5-55-5----5---5-55-|
A-3----3---3-33-0----0---0-00-|
E-----------------------------|
             /\
Right here do a quick up-down stroke

Part B Lead
e-----------------------|
B-----------------------|
G-----------------------|
D------2-3-5------2-3-2-|
A-3-333------3-333------|
E-----------------------|
    / \        / \
Rapid up-down strokes

Part C Rhythm
e-----------------------------|
B-----------------------------|
G-----------------------------|
D-5----5---5-55-5----5---5-55-|
A-5----5---5-55-5----5---5-55-|
E-3----3---3-33-0----0---0-00-|
Right after '...just as long as his ship's coming in...'
[ Tab from: http://www.guitartabs.cc/tabs/c/cake/italian_leather_sofa_tab_ver_4.html ]
Part D Lead
e-----------------------------|
B-----------------------------|
G-----------------------------|
D-----------------------------|
A------2-3-5------2-3-2-2---2-|
E-3-333------3-333--------3---|
Right after '...just as long as his ship's coming in...'

There are two guitars in this song. The rhythm guitar always plays Part A, except when it
doesn't and instead plays Part C. The lead guitar joins in after the first two measures
and plays part B.

This is my first tab but it's all you need to get started playing this song, I just
haven't figured out the solo or outro parts yet. The Mission Hill theme song uses the same
riffs as italian leather sofa, but it's about 2 or 2 1/2x the speed.

Listen to the songs to get the struming right because its hard to tab.

-Brenden Cline

ps-any complaints or electronic pats on the back can be forwarded to feret182@yahoo.com
or expressed 'verbally' to feret182 on aim
Comments