Cake - Is This Love Chords & Tabs

 

Is This Love Chords & Tabs

Cake Chords & Tabs

Version: 1 Type: Bass Tab 0 ratings
1 star 2 stars 3 stars 4 stars 5 stars
comments

Is This Love Bass Tab

"Is This Love?" - Cake

The tab I got for this song did not seem quite right, so I'm righting the wrong.

Part 1:

D --------------------------0-----2--
A ------------------0---2-------2----
E --0---0---3---5--------------------

Part 2:

G --------------------------0-----2--
D ------------------0---2-------2----
A --0---0---3---5--------------------

Part 3:
[ Tab from: http://www.guitartabs.cc/tabs/c/cake/is_this_love_btab.html ]
A -------------5h7-5h7--
E --0---0---------------

Part 4

D -------------5h7-5h7--
A --0---0---------------

Intro: Part 1 (4x), Part 2 (2x), Part 1 (2x), Part 2 (2x), Part 1 (1x)
Verse: Part 3 (4x), Part 4 (2x), Part 3 (2x)
Chrous: Part 2 (2x), Part 1 (2x), Part 2 (2x), Part 1 (2x)
Bridge: Part 4 (2x), Part 3 (2x)

Tabbed by Matt Hamann

E-mail me at matt1@jps.net or gartuck@hotmail.com
Homepage: http://www.jps.net/matt1/index.html

Comments