Cake - I Will Survive Chords & Tabs

 

I Will Survive Chords & Tabs

Cake Chords & Tabs

Version: 4 Type: Tab 0 ratings
1 star 2 stars 3 stars 4 stars 5 stars
comments

I Will Survive Tab

   
I know that you don't like just solos but I could not find the solo ANYWHERE!! The
one you have here is pritty much wrong.. so I tabbed this one.  there is no point
me tabbing the whole tune when people have already done it perfectly.

The tab tabbed from the single:

SOLO
------

e|------------------------------------------------------------------------|
B|--8b10~10b8-5-----------------------------------------------------------|
G|--------------7b9~9b7---7-7-9-99-9-9-99-9-7-9-74-8-4-8-4---------------|
D|----------------------9----------------------------------------5-7b-5---|
A|------------------------------------------------------------5/7-------7-|
E|------------------------------------------------------------------------|

e|------------------------------------------------------------------------|
B|------------------------------------------------------------------------|
G|-----------------------5---5-7-7b8b7-5---5-7-8-7-8-7--8----------------|
D|-5-7-5-7-5---5-5-6-7---7-------------7--------------------------------|
A|------------------------------------------------------------------------|
E|------------------------------------------------------------------------|
[ Tab from: http://www.guitartabs.cc/tabs/c/cake/i_will_survive_tab_ver_4.html ]
e|------------------------------------------------------------------------|
B|----------------------12------------------------------------------------|
G|-------9--11--911b13~~~~13b11-9--11----9-11---9-11--9------------------|
D|--9/11-------------------------------11------11-------------------------|
A|------------------------------------------------------------------------|
E|------------------------------------------------------------------------|

e|------------------------------------------------------------------------|
B|-----13--12---/1010-8-(0)-8-7-----12-10--/88--7-(0)-7-5-----------------|
G|------------------------------------------------------------------------|
D|--14-----12---/1010-9(0)-8-7---12---10--/99--7(0)-7-5-----------------|
A|------------------------------------------------------------------------|
E|------------------------------------------------------------------------|

e|------------------------------------------------------------------------|
B|------------------------------------------------------------------------|
G|-----10-8--/66-5-(0)-4-5-5b6--7---9---10--12--13------------------------|
D|------------------------------------------------------------------------|
A|--10----8--/77-5-(0)-4--------------------------------------------------|
E|------------------------------------------------------------------------|

Jon C
Comments