Cake - I Will Survive Chords & Tabs

 

I Will Survive Chords & Tabs

Cake Chords & Tabs

Version: 2 Type: Tab 0 ratings
1 star 2 stars 3 stars 4 stars 5 stars
comments

I Will Survive Tab

   
Author/Artist: Cake
Title: I Will Survive

**Chord Form**
Intro/Verses/Chorus (background):

Am , Dm , G , C , F , B , E


**Tab Form**
intro/verses/chorus(background):
*play each about 8 times exept for the last one which you play about 10-15 times:

E---------------------------------0--|
B---------------------------------0--|
G------7----------5----------4----1--|
D-7----7----5-----5----3-----4----2--|
A-7----5----5-----3----3-----2----2--|
E-5---------3----------1----------0--|

[ Tab from: http://www.guitartabs.cc/tabs/c/cake/i_will_survive_tab_ver_2.html ]
this is the main part of the chorus(repeat):
E-----------------------------------------------------------------------|
B-----------------------------------------------------------------------|
G---12-12-12-12-12-12b--14-14-14-14-14-14b--7-7-7-7-7-7b--5-5-5-5-5-5b--|
D---10-10-10-10-10-10b--12-12-12-12-12-12b--5-5-5-5-5-5b--3-3-3-3-3-3b--|
A-0---------------------------------------------------------------------|
E-----------------------------------------------------------------------|
                                                                              

E-----------------------------------0-0-0-0-0-0-0-0-0-0-0-0--|
B-----------------------------------0-0-0-0-0-0-0-0-0-0-0-0--|
G-10-10-10-10-10-10b--4-4-4-4-4-4b--1-1-1-1-1-1-1-1-1-1-1-1--|
D--8--8--8--8--8--8b--2-2-2-2-2-2b--2-2-2-2-2-2-2-2-2-2-2-2--|
A-----------------------------------2-2-2-2-2-2-2-2-2-2-2-2--|
E------------------------------------------------------------|
Comments