Cake - I Will Survive Chords & Tabs

 

I Will Survive Chords & Tabs

Cake Chords & Tabs

Version: 1 Type: Tab 1 rating
1 star 2 stars 3 stars 4 stars 5 stars
comments

I Will Survive Tab

   
#-----------------------------PLEASE NOTE-------------------------------------#
#This OLGA file is the author's own work and represents their interpretation  #
#of the song. You may only use this file for private study, scholarship, or   #
#research. Remember to view this file in Courier, or other monospaced font.   #
#See http://www.olga.net/faq/ for more information.                           #
#-----------------------------------------------------------------------------#

Subject: c/cake/i_will_survive.tab
Tab:I Will Survive by Cake
Album: Fashion Nugget

	Yet another great song of this album, and the only cover song on the album.(Yes, this actually used to be a disco song)

Main Riff

    Amin   Dmin     G      C      F      B      E      E
e:I-5-5-5--5-5-5--3-3-3--3-3-3--1-1-1--2-2-2--0-0-0--0-0-0-I
B:I-5-5-5--6-6-6--3-3-3--5-5-5--1-1-1--4-4-4--0-0-0--0-0-0-I
G:I-5-5-5--7-7-7--4-4-4--5-5-5--2-2-2--4-4-4--1-1-1--1-1-1-I
D:I-7-7-7--7-7-7--5-5-5--5-5-5--3-3-3--4-4-4--2-2-2--2-2-2-I
A:I-7-7-7--5-5-5--5-5-5--3-3-3--3-3-3--2-2-2--2-2-2--2-2-2-I
E:I-5-5-5---------3-3-3---------1-1-1---------0-0-0--0-0-0-I

	You can really play around with the feel of this song.  You can take a bar chord approach, playing only the bottom three strings, you can play the whole bar chord, or you can use the corresponding open chords.  Also, as you can probably tell, I haven't shown the correct strumming.  Listen to the record for that, it's easy enough.
[ Tab from: http://www.guitartabs.cc/tabs/c/cake/i_will_survive_tab.html ]
Direct comments to: allen09@cn.ca(jamie)


Date: Wed, 13 Aug 1997 12:58:19 +0800 (PST)
From: "Alain Bjorn M. Paje" 
Subject: TAB: I Will Survive


Artist: Cake
Album: Fashion Nugget
Song: I Will Survive
Subject: Bass Tablature
Transcribed by: Alain Bjorn M. Paje -> e-mail: 9610839@ignacio.cs.xu.edu.ph

    Bassist Victor Damiani, makes up a cool and steady bass lines
with a variation at the last part of the song. I have not yet wrote the
variation at the last part but it's pretty simple and you can figure it out.
    If you have any comments or suggestions, please e-mail me at the address
above. Thanks and have fun.

 
          A             D

G|--------------------------7---5---5-7--|
D|------7---5-----5h7---------7---7------|
A|--------7---7-7-----7-5-5--------------|
E|--5-5----------------------------------|

          G             C

G|---------------------------5---3---3-5--|
D|------5---3------3h5---------5---5------|
A|--------5---5-5------5-3-3--------------|
E|--3-3-----------------------------------|

          F              Bm

G|----------------------------4-----4-4-4-|
D|------3---1------1h3------4---4-4-------|
A|--------3---3-3------3--2---------------|
E|--1-1-----------------------------------|

    E

G|----------------------------------------|
D|------2---2---2-2---2-2-4-4-5-5-6-6-----|
A|--------2---2-----2---------------------|
E|--0-0-----------------------------------|

                (repeat until end)
Comments