Cake - Guitar Man Chords & Tabs

 

Guitar Man Chords & Tabs

Cake Chords & Tabs

Version: 2 Type: Tab 0 ratings
1 star 2 stars 3 stars 4 stars 5 stars
comments

Guitar Man Tab

Cake
The Guitar Man 
Pressur Chief

I've tabbed this because the other tab was incorrect.



Intro

1st part:

e:----0-----------------------------------------------:
B:----0-------------------------------10p8-10/12------:
G:-----------------------------7-----------------12---:
D:-2-----------0-------5----7h9------------------12---:
A:-2-----0-2-3------5h7-------------------------------:
E:-0--------------------------------------------------:


2nd part:
[ Tab from: http://www.guitartabs.cc/tabs/c/cake/guitar_man_tab_ver_2.html ]
e:--------------------------------------------------------------------:
B:--------------------------------------------------------------------:
G:---------------------4-4--4-----4---7---7--7--5--5--4--4------------:
D:-5---5--5--7---7-7-------------7--------------------------7--7/9\7--:
A:--------------------------------------------------------------------:
E:--------------------------------------------------------------------:

....too lazy to tab the rest.


Comments/Corrections....nicolasfarraro@yahoo.com

-Nicolas Farraro
Comments