Cake - Comfort Eagle Chords & Tabs

 

Comfort Eagle Chords & Tabs

Cake Chords & Tabs

Version: 1 Type: Tab 0 ratings
1 star 2 stars 3 stars 4 stars 5 stars
comments

Comfort Eagle Tab

Comfort Eagle - The Cake 

Main Guitar Riff : 

E|-------------------    ------------------------
B|-------------------    ------------------------
G|-------------------    ------------------------
D|-2--2--2--2-2-3--2-    -2--2--2--2-2-6--7--6--3
A|-2--2--2--2-2-3--2-    -2--2--2--2-2-6--7--6--3
E|-0--0--0--0-0-1--0-    -0--0--0--0-0-4--5--4--1

Banjo : 
[ Tab from: http://www.guitartabs.cc/tabs/c/cake/comfort_eagle_tab.html ]
E|---------------------------|---------------------------|------------------------|------------------------|
B|---------------------------|---------------------------|------------------------|------------------------|
G|-9-----9--10--9------7-----|---7---9---7-----7----5----|---4----4--5--4----2----|--2--4--2----0----------|
D|---------------------------|---------------------------|------------------------|-------------------3----|
A|---------------------------|---------------------------|------------------------|------------------------|
E|---------------------------|---------------------------|------------------------|------------------------|

i'm not sure about the banjo tab 

any comments to 
lazza005@etudiant.univ-nancy2.fr   or 
synchrone@hotmail.com 


Comments