Cake - Arco Arena Chords & Tabs

 

Arco Arena Chords & Tabs

Cake Chords & Tabs

Version: 2 Type: Bass Tab 0 ratings
1 star 2 stars 3 stars 4 stars 5 stars
comments

Arco Arena Bass Tab

Band : Cake
Song : Arco Arena 
Tabbed by Natsuka 

Riff 1 : 

G|-----------------------------------|
D|----------------7--------------7---|
A|------3-5-2-3-0------3-5-2-3-0-----|
E|--2--------------------------------|

G|-----------------------|-------------------------------------------------------------------------|
D|-----------------------|-------------------------------------------------------------------------|
A|-----------------------|-------------------------------------------------------------------------|
E|-5----5----5----5----3-|5---0-3-0-3-0-3---5--5---0-3-0-3---5--5---0-3-0-3-0-3---0-3-0-3---0-3--5-|

G|--------------------------------------------------|
D|--------------------------------------------------|
A|------3-5-3------------3-5-3------------3-5-3-----|
E|--5-7-------7-5----5-7-------7-5----5-7-------7-5-|

Riff 2 : 
[ Tab from: http://www.guitartabs.cc/tabs/c/cake/arco_arena_btab_ver_2.html ]
G|-----------------------------------|
D|----------------7--------------7---|
A|------3-5-2-3-0------3-5-2-3-0-----|
E|--2--------------------------------|

G|-----------------------|-------------------------------------------------------------------------|
D|-----------------------|-------------------------------------------------------------------------|
A|-----------------------|-------------------------------------------------------------------------|
E|-5----5----5----5----3-|5---0-3-0-3-0-3---5-5---0-3-0-3-0-3---5---0-3-0-3-0-3---0-3-0-3---0-3--5-|

G|--------------------------------------------------|
D|--------------------------------------------------|
A|------3-5-3------------3-5-3------------3-5-3-----|
E|--5-7-------7-5----5-7-------7-5----5-7-------7-5-|


End : 

G|-----------------------------------|
D|----------------7--------------7---|
A|------3-5-2-3-0------3-5-2-3-0-----|
E|--2--------------------------------|
Comments