Caifanes - No Dejes Que Chords & Tabs

 

No Dejes Que Chords & Tabs

Caifanes Chords & Tabs

Version: 1 Type: Tab 0 ratings
1 star 2 stars 3 stars 4 stars 5 stars
comments

No Dejes Que Tab

Caifanes
NO DEJES QUE
Saul Hernandez

TAB OUT BY el_matador_20

 (INTRO)
E|------------------------------------------------------------------14------
B|-5/7-7-5---8-------------7/5-5/7--5----7/5--8---10--12--14-14-12----15-15-
G|---------7---6-7-6------------------7------7---------------------14-------
D|-------------------9-7-7--------------------------------------------------
A|--------------------------------------------------------------------------
E|--------------------------------------------------------------------------

(after the chorus)
E ------10----------------
B -5/7----10---7--5-------
G ------------------7-----
D ------------------------
A ------------------------
E ------------------------
[ Tab from: http://www.guitartabs.cc/tabs/c/caifanes/no_dejes_que_tab.html ]
       (SOLO)
E-----10--------------10-12-12/14-^14-14-14/12-12-12/10-10-10/9-9--9--9/-7-7-
B-5/7---10-7-5------10-----------------------------------------10-10-10/-9-9-
G-------------7-7/11---------------------------------------------------------
D----------------------------------------------------------------------------
A----------------------------------------------------------------------------
E----------------------------------------------------------------------------

E-7------------------------------------------------------------7-7-7/-9--9---
B-9/8-8~7~5~7-7/5-7--7-7-5-5-5---------------------------------8-8-8/10-10---
G----------------7---7-7-6-6-6---6---6---6-7-6-------9-9-6-7-7---------------
D-------------------------------7-9-7-9-7-----7/4--4/------------------------
A----------------------------------------------------------------------------
E----------------------------------------------------------------------------

E--9/7-7-7/5-5-5/3-3-3-----9---9---9--------------------10----------------12-
B-10/8-8-8/7-7-7/5-5-5---10---10--10-----------------------------------------
G---------------------5/11---11--11--11-11-11-11/12-12-12-12-12-12/14-14-14--
D----------------------------------------------------------------------------
A----------------------------------------------------------------------------
E----------------------------------------------------------------------------

If You Have Any Questions or coments
Send Me An E-Mail At el_matador_20@hotmail.com
Comments