Caifanes - La Negra Tomasa Chords & Tabs

 

Caifanes Chords & Tabs

Version: 1 Type: Tab 0 ratings
1 star 2 stars 3 stars 4 stars 5 stars
comments

La Negra Tomasa Tab

   
#----------------------------------PLEASE NOTE---------------------------------#
#This file is the author's own work and represents their interpretation of the #
#song. You may only use this file for private study, scholarship, or research. #
#------------------------------------------------------------------------------##
                                lg277126@hp9k.lag.itesm.mx
                                Eduardo A. Grijalva Meza

                        
                           CAIFANES
                     ~~~~~~~~~~~~~~~~~~~~
                        LA NEGRA TOMASA

INTRO:
~~~~~~~

E|-----------------------------------------------------------------
B|-----------------------------------------------------------------
G|-----------------------------------------------------------------
D|----------7---------9---------7---------9---------7---------9----
A|----------6-7-------6-9-------6-7-------6-9-------6-7--------6-9-
E|-----------------------------------------------------------------



[ Tab from: http://www.guitartabs.cc/tabs/c/caifanes/la_negra_tomasa_tab.html ]
      A                  B           A           B 
E|-----------------------------------------------------------------
B|-----------------------------------------------------------------
G|---------------------7-----9--------------------7----------------
D|--7----9-------------6-----6------7-----9-------6----------------
A|--6----6--------------------------6-----6------------------------
E|-----------------------------------------------------------------
 
etoy.........         de mi negra.. que cuando.. triste me pongo
    

CORO:
~~~~~~
      ay!         ay!        ay!!
E|-----------------3----------1----------------------------------------
B|-----------------2----------3----------------------------------------
G|------2---------------------3----------------------------------------
D|------2---------------------2----------------------------------------
A|------2---------------------1----------------------------------------
E|-----------------3----------1---------------------------------------



        acorde "A"               acorde "B"
E|------0---------           E|------0---------------  
B|------0---------           B|------2---------------
G|------2---------           G|------1---------------
D|------2---------           D|------0---------------
A|------1---------           A|------0---------------
E|------0---------           E|----------------------



NOTE:
IF YOU HAVE SOME QUESTION, PLEASE WRITE TO: lg277126@hp9k.lag.itesm.mx
  

Comments