Caifanes - La Celula Que Explota Chords & Tabs

 

La Celula Que Explota Chords & Tabs

Caifanes Chords & Tabs

Version: 1 Type: Bass Tab 0 ratings
1 star 2 stars 3 stars 4 stars 5 stars
comments

La Celula Que Explota Bass Tab

   
Band: Caifanes
Song: La Celula que Explota
Album: El Diablito
Bassist: Sabo Romo
Tuning: Standard
Tabbed by: ThrashMetalhead

Intro

G|-----------------------|----------------|---------------(4)---------|
D|-----------------------|----------------|-------------------(4)-----|
A|-12\-2----0-2--4-5---4-|-2-----2-2--4-5-|-0-2---------2---------(4)-|
E|-------2---------------|---2-2----------|-----2-2-5-2---------------|

Verse 1

G|---------(5)-----|---------(5)-|-------------|-----------4---0-4-6------|
D|-------------(5)-|-------------|-------------|---------4---4-----7-7----|
A|-----------------|-------------|-0---2---4-5-|-0---2-5------------------|
E|-2---3-----------|-2---3-------|-------------|-----------------------7\-|

Verse 2

G|-------------------4p0---------|-------------------3h4p0-------|
D|-----2-----------4-----4p0-----|-----2-----------4-------4p0---|
A|---4---4-------5-----------4p0-|---4---4-------5-------------4-|
E|-2-------2---3-----------------|-2-------2---3-----------------|

G|------------------4--7--9-11--9-7-|--------------------4--------|
D|------(7)-------4----9-11-12-11-9-|----2-----7-------4---4------|
A|-0---(7)----2-5-------------------|-0-----0------2-5------------|
E|----------------------------------|------------------------3--5-|

Bridge

G|----------------------------------|------------------------------------|
D|----------------------------------|------------------------------------|
A|----------------------------------|------------------------------------|
E|-1--1-1--1--1-1/--3--3-3---3-3-5\-|-1--1-1--1--1-1/--3--3-3---3-3-3-5\-|

Verse 3
[ Tab from: http://www.guitartabs.cc/tabs/c/caifanes/la_celula_que_explota_btab.html ]
G|---------------------------------|---------------------------------|
D|---------------------------------|---------------------------------|
A|---4-4-----4-4-----5-5-----5-5---|---4-4-----4-4-----5-5-----5-5---|
E|-2-----2-2-----2-3-----333-----3-|-2-----2-2-----2-3-----333-----3-|

G|--------------------------------------|
D|-----2-------2------------------------|
A|-0-4---4-0-4---4-2-----2-2--2-4-5-4-2-|
E|-------------------2-2----------------|
 |
G|----------------------------4---0-5/-6-----|
D|-----2----------2---2-----4---4------7-----|
A|-0-4---4-0--0-4---4---2-5--------------12\-|
E|-------------------------------------------|

G|-----------------------|-----------------------|
D|-----------------------|-----------------------| x3
A|----------------5h7-5\-|----------------5h7-5\-|
E|-1--1-1--1-1--1--------|-3--3-3--3-3--3--------|

G|-----------------------|---------------------------------|
D|-----------------------|-------------------------4-7-5-4-|
A|----------------5h7-5\-|-0-0-0-0-2-2-2-2-4-4-4-4---------|
E|-1--1-1--1-1--1--------|---------------------------------|

Outro

G|---------------------------------|-------------------------2h4-2-4h6-4-2-----|
D|---------------------------------|---------------------------------------5-4-|
A|-5-------5---5-4-2-------2-----2-|-5-------5---5-4-2-----2-------------------|
E|---5-5-5---5-------2-2-2---2-2---|---5-5-5---5-------2-2---------------------|

G|----------------------------------------------------------14-16-16/18-|
D|------------------------------------------------7h9-7-0---------------|
A|-5-------5---5-4-2-----2-2-----0-2-4-5-5--5-5\------------------------|
E|---5-5-5---5-------2-2-----2-2----------------------------------------|

Legend
------
| /   = slide up
| \   = slide down
| h   = hammer-on
| p   = pull-off
| (#) = harmonic
Comments