Cage The Elephant - Aberdeen Chords & Tabs

 

Aberdeen Chords & Tabs

Cage The Elephant Chords & Tabs

Version: 4 Type: Bass Tab 0 ratings
1 star 2 stars 3 stars 4 stars 5 stars
comments

Aberdeen Bass Tab

   
---------------------------------------------------------------------------
                             Aberdeen - Cage the Elephant
----------------------------------------------------------------------------
Tabbed by: Brian Kircher
E-mail: b.t.kircher@gmail.com

Tuning: Standard


Slight variation from the other tabs. This allows you to stay within the 1 finger per 
fret range, and it's also very similar to how he played this (at least on the Tonight Show).


INTRO (0.07)
G|----------------------------------------------------|
D|----------------------------------------------------|
A|----------------------------------------------------|
E|-87878787-3333/7777--88888888-3333/7777--87878787---|

VERSE
G|----------------------------------------------------------------------|  x2
D|---------7h9---------------7h9----------------7h9---------------------|
A|--101010----777-----101010----777------101010----777------------------|
E|--------------(10)--------------(10)---------------(10)-8888-878787\2-|
[ Tab from: http://www.guitartabs.cc/tabs/c/cage_the_elephant/aberdeen_btab_ver_4.html ]
VERSE
G|----------------------------------------------------------------------|
D|---------7h9---------------7h9----------------7h9---------------------|
A|--101010----777-----101010----777------101010----777------------------|
E|---------------(10)-------------(10)---------------(10)---8888-7777---|

CHORUS
G|----------------------|
D|----------------------|x3
A|------------7775------|
E|--3332/7777------8888-|

G|----------------------------|
D|----------------------------|
A|----------------------------|
E|-3332/7777--87878787--------|


(10) - Optional Note

I have yet to figure out exactly what he's playing on the bridge, and I'm definitely not 
capturing all of his embellishments. Feel free to help me out with what's missing 
and/or incorrect.


Update: Try this for the bridge.

G|-----------------------------| x4
D|-----------------------------|
A|-777-------776---------------|
E|----78888-----78888----------|



| /  slide up
| \  slide down
| h  hammer-on
| p  pull-off
| ~  vibrato
| +  harmonic
| x  Mute note
===============================================================================
Comments