Cafe Tacuba - Bar Tacuba Chords & Tabs

 

Bar Tacuba Chords & Tabs

Cafe Tacuba Chords & Tabs

Version: 1 Type: Tab 0 ratings
1 star 2 stars 3 stars 4 stars 5 stars
comments

Bar Tacuba Tab

Band: Cafe Tacuba
Song: Bar Tacuba


tabbed by jam9383@yahoo.com
I tabbed from Unplugged Version

Intro/Riff

e---------------------------------------------------------------------|
B---------12------------------------------12--------------------------|
G------12------------------------------12-----------------------------|
D---14-------12--14-12-13-14--------14-------12-14-12-13-14-----------|
A----------------------------14-14------------------------------------|
E---------------------------------------------------------------------|

Bridge

e---------------------------------------------------------------------|
B---------------------------------------------------------------------|
G--12-12-12--12-12-12--12--12--12-12-12-------------------------------|
D--12-12-12--12-12-12--11--11--11-11-11-------------------------------|
A--14-14-14--12-12-12--12--12--12-12-12-------------------------------|
E---------------------------------------------------------------------|

e---------------------------------------------------------------------|
B---------------------------------------------------------------------|
G--12-12-12--12-12-12--12--12--12-12-12-------------------------------|
D--12-12-12--12-12-12--11--11--12-12-12-------------------------------|
A--14-14-14--12-12-12--12--12--14-14-14-------------------------------|
E---------------------------------------------------------------------|

Verse
[ Tab from: http://www.guitartabs.cc/tabs/c/cafe_tacuba/bar_tacuba_tab.html ]
e---7---7---7---3---3---3---7---7---5---5---5-------------------------|
B---8---8---8---3---3---3---7---7---5---5---5-------------------------|
G---9---9---9---4---4---4---7---7---5---5---5-------------------------|
D---9---9---9---3---3---3---7---7---5---5---5-------------------------|
A---7---7---7---5---5---5---5---5---3---3---3-------------------------|
E---------------3---3---3---------------------------------------------|

e---7---7---7---3---3---3---7---7---7---7---7-------------------------|
B---8---8---8---3---3---3---7---7---8---8---8-------------------------|
G---9---9---9---4---4---4---7---7---9---9---9-------------------------|
D---9---9---9---3---3---3---7---7---9---9---9-------------------------|
A---7---7---7---5---5---5---5---5---7---7---7-------------------------|
E---------------3---3---3---------------------------------------------|

Chorus

e---------------------------------------------------------------------|
B---2------4------5------7--------------------------------------------|
G---2------4------5------7--------------------------------------------|
D---2------4------5------7--------------------------------------------|
A---0------2------3------5--------------------------------------------|
E---------------------------------------------------------------------|

Piano Solo comp guitar

e---------------------------------------------------------------------|
B---------------------------------------------------------------------|
G---\12-12-12/---\12-12-12/---\12-12-12/----\12-12-12/----------------|
D---\12-12-12/---\12-12-12/---\12-12-12/----\12-12-12/----------------|
A---\14-14-14/---\14-14-14/---\14-14-14/----\14-14-14/----------------|
E---------------------------------------------------------------------|

Post Piano Solo

e------7----------------7---------------------------------------------|
B----8----------------8-----------------------------------------------|
G--9--------7--8----9----------7--8-----------------------------------|
D---------9-----------------9-----------------------------------------|
A---------------------------------------------------------------------|
E---------------------------------------------------------------------|

any comments/corrections contact me, please rate
Comments