Cadaver - Mr Tumor Misery Chords & Tabs

 

Mr Tumor Misery Chords & Tabs

Cadaver Chords & Tabs

Version: 1 Type: Tab 0 ratings
1 star 2 stars 3 stars 4 stars 5 stars
comments

Mr Tumor Misery Tab

   
-CADAVER - MR. TUMOUR'S MISERY from the "...In Pains" CD (c) 1992 Earache

-Transcribed by Chris Myhre, version 1.0 July 98

-For questions, corrections, etc email me: cmyhre@ha-nett.no

-For best print set left:0.27cm right:0.27cm in your web browser's page setup

-Tuning: one step down (1:D, 2:A, 3:F, 4:C, 5:G, 6:D)

-Notation legend: * = see note; . = palm mute; / = slide up



                          riff A1                  riff A2

   gtr 1                  gtr2 comes in 2nd time x5                             x4        x4

1>|----------------------|------------------------|------------------------------|---------|

2>|----------------------|------------------------|------------------------------|---------|

3>|----------------------|------------------------|------------------------------| repeat  |

4>|----------------------|------------------------|------------------------------| riff A1 |

5>|2---------------------|--2--*------------------|--2---------------------------|---------|

6>|0--1-3--1-3-4--3-1-3--|1-0--1-3--1-3-4--3-1-3--|1-0--1-3333113344443333113333-|---------|

  |   .    . .    . .    |.    .    . .    . .     .    . ......................

  |                      |

  |--------|             |--------|   * this note isn't palm-muted all the time

  |--------|             |--------|

  |--------| gtr 2       |--------| gtr 2 first

  |--------|             |--------| time only

  |3-------|             |--------|

  |1-0--1--|             |1-0--1--|

     .  .                 . .  .

           x1                             riff B                                     x4

  |---------|----------------------------|--------------------------------------------|

  |---------|----------------------------|--------------------------------------------|

  | repeat  |----------------------------|--------------------------------------------|

  | riff A2 |----------------------------|--------------------------------------------|

  |---------|--2----------------------4--|--------4----------4----------4----------3--|

  |---------|1-0--1-3333113344443333112--|222222222--222222222--222222222--22222222---|

             .    . ..................    ........   ........   ........   ........



   riff C                          x4 riff D                         x4
[ Tab from: http://www.guitartabs.cc/tabs/c/cadaver/mr_tumor_misery_tab.html ]
  |---------------------------------|---------------------------------|-----------|

  |---------------------------------|---------------------------------| repeat    |

  |---------------------------------|---------------------------------| riff C x4 |

  |---------------------------------|---------------------------------| then      |

  |----33332222---------------------|------------------------66666666-| riff D x2 |

  |2222--------00003333333366666666-|555555884444444455555588---------|-----------|



                                   x2                        x4  w/ fill 1

  |---------------------------------|-------------------------|-------------------------

  |---------------------------------|-------------------------|-------------------------

  |---------------------------------|-------------------------|-------------------------

  |---------------------------------|-------------------------|-------------------------

  |------------------------66666666-|-------------------------|777777777777666666666666-

  |5555558-444444445555558----------|000000000000666666666666-|-------------------------

   ....... ............... ........  ........................



                                                      _________________________

                           x4  w/ fill 2     x4      |   1 - 4                x5

  --------------------------|----------------|---------------------------------|

  --------------------------|----------------|---------------------------------|

  --------------------------|----------------|---------------------------------|

  -555555555555-------------|----------------|---------------------------------|

  -------------444444444444-|4---3---7---2---|4---3----------------------------|

  --------------------------|2---1---5---0---|2---1---555555555555000000000000-|

                                                      ........................

                                            ________

   fill 1                         fill 2   |1-4    x9

  |----------------|            |-------------------|

  |----------------|            |-------------------|

  |----------------| gtr3       |-------------------| gtr3

  |9-----8-/-9--8--|            |-------------------|

  |7---------------|            |4--3/4-3---7---2---|

  |----------------|            |-------------------|


        now repeat song from riff B and end with A#5...
Comments