Cadaver - Bypassed Chords & Tabs

 

Bypassed Chords & Tabs

Cadaver Chords & Tabs

Version: 1 Type: Tab 0 ratings
1 star 2 stars 3 stars 4 stars 5 stars
comments

Bypassed Tab

______________________________________________________________
-CADAVER - BYPASSED from the "...In Pains" CD (c) 1992 Earache
-Transcribed by Chris Myhre. Version 1.0 Apr 2001
-For questions, corrections, etc email me: bowel_ripper@hotmail.com
-For best print edit the left/right margins in page setup to make the tab fit the sheet
-Tuning: one step down (1:D, 2:A, 3:F, 4:C, 5:G, 6:D)
-Notation legend: . = palm mute; / \ = slide up/down; ~ = vibrato; * = see note

   gtr 1 & 2		      ______________ ________x4  riff A
1>|-----------x4-------------|  1 - 3       |  4      |--gtr 3 (gtr 1 & 2 see below)
2>|------------'--------------------------------------|--------------------------
3>|------6-6-6-'--------------------------------------|8--8----------------------
4>|------5-5-5-'--------------------------------------|------7--7----4--5--5--4--
5>|------4-4-4-'44444433333333---------------4-4-4-5--|--------------------------
6>|000000------'--------------22222233333333-2-2-2-3--|--------------------------
   ......	............................ . . . .
							  _______x3
  -------------------------------------------------------| 1, 2   |
  --3----5----8---------------------------------------------------|
  --3----5----8----9--9-------------------------------------------|
  -----------------------10--10-------5--5--7--7------------------|
  ---------------------------------7--------------6--6----4--4----|
  ----------------------------------------------------------------|

    gtr 1 & 2 (riff A)
  |-----------------------------------------------------------------------------------------|
  |-----------------------------------------------------------------------------------------|
  |-----------------------------------------------------------------------------------------|
  |8--8------------------------0----2----5----------------------------------8--8----6--6----|
  |6--6--7--7----4--5--5--4----1----3----6----7--7-----------2--5--5--7--7--6--6----4--4----|
  |------5--5----2--3--3--2-------------------------8--8--\--0--3--3--5--5------------------|
							     .

  |-------------------------X4-------------------------------------------------------
  |--------------------------|-------------------------------------------------------
  |-------8-----------10-----|-------------------------------------------------------
  |-----7-7---------9-9------|-------------------------------------------------------
  |7-10--------9-12----------|------5555555555444444----------------3333333333-------
  |--------------------------|666666----------------1111111111444444----------333333-
   . (pm first time only)     ......................................................
[ Tab from: http://www.guitartabs.cc/tabs/c/cadaver/bypassed_tab.html ]
  ----------x4-----------------------------------------x2------'------'------'--------'
  -----------'------------------------------------------|------'------'------'--------'
  -----------'------------------------------------------|(bass)'8-8---'(bass)'10-10---'
  -----------'------------------------------------------|------'7-7---'------'9--9----'
  -2222222222'4444443333333333-----------------4-4-4-5--|------'6-6---'------'8--8----'
  -----------'----------------2222223333333333-2-2-2-3--|------'------'------'--------'
   .......... ................................ . . . .

  '------'-----------------x2--------------x4-----------------------------x2------------
  '------'------------------|---------------'------------------------------'------------
  '(bass)'12-12--(12~)----\-|---------------'------------------------------'------------
  '------'11-11--(11~)----\-|---------------'------------------------------'------------
  '------'10-10--(10~)----\-|--3-3-3---2-2--'--4-4-4---3-3----4-4---3-3----'--5-5---4-4-
  '------'------------------|4-------3------'5-------4------5-----4--------'6-----5-----
			     .       .       .       .      .     .	    .     .
					   ______ ______ ______
  ----------------x2--w/fill 1------------| 1-6  | 7    | 8   x8-------------------
  -----------------|--(7th/8th time)---------------------------|-------------------
  -----------------|---------------------------6------------6--|-------------------
  -----------------|--7-7---6-6----7-7---6-----5------6-----5--|-------------------
  ---5-5---4-4-----|--5-5---4-4----5-5---4-44444--4444---44-4--|1--1-5----4--4-8---
  -6-----5---------|6-----5------6-----5-----------------------|1--1-5----4--4-8---
   .     .	    .	  .	 .     .   ....   ....   ..
   ____________________
  |  1 - 3            x4---------------------------------'----------------------------x2
  ---------------------|---------------------------------'-----------------------------|
  ---------------------|---------------------------------'-----------------------------|
  ---------------------|---------------------------------'-----------------------------|
  -6--6-3----5--5-2----|8-10-10-10----------3-3-3---2-2--'--5-5---4-4----5-5---4-4-----|
  -4--4-3----3--3-2----|-----------8-9-9--4-------3------'6-----5------6-----5---------|
			     .. ..	  . . . . .	  .     .      .     .
	   second time ends
  |-----x2-like this------------------'------'---(fade-out)|
  |------'----------------*gtr 3------'------'-------------|
  |repeat'--------8*--8*--------------'(bass)'-------------|
  |riff A'----------------7*--7*------'------'5------------|
  |------'4--4----6---6---------------'------'6------------|
  |------'----------------5---5-------'------'-------------|
	  .  .    .   .   .   .

  |FILL 1 (gtr 3)----------------------------------------------|
  |------------------------------------------------------------|
  |--------------------------------7-7---6-6----7-7---6--------|
  |--7-7---6-6----7-7---6-66666--8-----7------8-----7----5-/-\-|
  |8-----7------8-----7----------------------------------------|
  |------------------------------------------------------------|
   .     .      .     .   ....

	Check out my personal tablature page where you can find all my newest tabs:

				http://home.no.net/bowelri
Comments