Cactus - Mon Chords & Tabs

 

Mon Chords & Tabs

Cactus Chords & Tabs

Version: 1 Type: Tab

Mon Tab

   
***************************************
Song   - Mon 
Artist - Cactus
Album  - Nil Nirjane
***************************************
Tabbed by Rohan Dasgupta
E-Mail - rohanzdomain@gmail.com
***************************************

Riff:
	|---------------------------------------e
	|---7---7-----7-------7---7-----7-------B
	|-----9-----9---9-------9-----9---9-----G
	|---------9-------9---------9-------9---D
	|---------------------------------------A
	|---------------------------------------E

	|---------------------------------------e
	|---------------------------------------B
	|---9-8-9---8-9-8-----9-8-9---8-9-8-----G
	|-----------------9---------9-------9---D
	|---------------------------------------A
	|---------------------------------------E
[ Tab from: http://www.guitartabs.cc/tabs/c/cactus/mon_tab.html ]
Verse1: Riff continues
E                     B
Mon ... Boro abujh ei mon
                E
Kichhute manena hae
E                     B
Mon ... Boro abujh ei mon
                E
Kichhute manena hae

Bridge1: Riff continues
A		     B    C#m   B
Obiram ahoto smritir bhir ... tobu

Chorus1:
E       C#m  B    A
Aami je cheyechhi tomay
            C#m  B    E
Aami shudhu cheyechhi tomay
E       C#m  B    A
Aami je cheyechhi tomay
            C#m  B    E
Aami shudhu cheyechhi tomay

On Riff:
Shuup shuup shuup
Shuup shuup shuup
Shuup shuup shuup
Shuup shuup shuup

The same goes on for the rest of the song.

***************************************